Oops, an error
Loading. Please wait.

Different Shades Of Gray Tab

323 views 1 this week
no commentswrite comment
1 2 3 4 5
not so good
x 1
add to favorites launch autoscroll
font size
0
reset
Autoscroll
+/-
esc
set tempo
stop
WARNING: You are trying to view
                                    content from Ultimate-Guitar.com
                                    in an unauthorized application,
                                    which is prohibited.

                                    Please use an official Ultimate
                                    Guitar Tabs application for iPhone,
                                    iPad or Android to access legitimate
                                    chords, guitar, bass, and drum tabs
                                    from Ultimate-Guitar.com database.

                                    Type "ultimate guitar tabs" in Apple
                                    App Store's or Android Market's
                                    search to find the application.
Skumdum : http://www.skumdum.se/


Lead guitar
     S S S S S S S S S S S S S S S S    S S S S S S S S S S S S S S S S  
E||----------------------------------|----------------------------------|
B||----------------------------------|----------------------------------|
G||----------------------------------|----------------------------------|
D||----------------------------------|----------------------------------|
A||--6-6-9-9-8-8-9-9-6-6-9-9-8-8-9-9-|--4-4-8-8-6-6-8-8-4-4-8-8-6-6-8-8-|
E||----------------------------------|----------------------------------|


                                     PM PM                     
  S S S S S S S S S S S S S S S S    S  S  Q.     E  E  E  E   
----------------------------------|---------------------------|
----------------------------------|---------------------------|
----------------------------------|---------------6--6--6--6--|
----------------------------------|--4--4--4------6--6--6--6--|
--6-6-9-9-8-8-9-9-6-6-9-9-8-8-9-9-|--4--4--4------4--4--4--4--|
----------------------------------|--2--2--2------------------|


  S S S S S S S S  S  S  S  S  S  S  S  S  
------------------------------------------|
------------------------------------------|
--8-8-8-8-8-8-8-8-10-10-10-10-11-11-11-11-|
------------------------------------------|
--6-6-6-6-6-6-6-6--8--8--8--8--9--9--9--9-|
------------------------------------------|


   S  S  S  S  S  S  S  S  S  S  S  S  S  S  S  S  
--------------------------------------------------|
--------------------------------------------------|
--10-10-10-10-10-10-10-10-11-11-11-11-13-13-13-13-|
--------------------------------------------------|
---8--8--8--8--8--8--8--8--9--9--9--9-11-11-11-11-|
--------------------------------------------------|


   S  S  S  S  S  S  S  S  S  S  S  S  S  S  S  S  
--------------------------------------------------|
--------------------------------------------------|
--11-11-11-11-11-11-11-11-15-15-15-15-11-11-11-11-|
--------------------------------------------------|
---9--9--9--9--9--9--9--9-13-13-13-13--9--9--9--9-|
--------------------------------------------------|


   S  S  S  S  S  S  S  S  S  S  S  S  S  S  S  S    S S S S S H        E.   
--------------------------------------------------|-------------------------|
--------------------------------------------------|-------------------------|
--15-15-15-15-15-15-15-15-13-13-13-13-10-10-10-10-|--8-8-8-8-8--------------|
--------------------------------------------------|--8-8-8-8-8--------------|
--13-13-13-13-13-13-13-13-11-11-11-11--8--8--8--8-|--6-6-6-6-6--------------|
--------------------------------------------------|-------------------------|


  S S S S S E.  H           S S S S S H        E.     E  E  E  E  E  E  E  E   
-------------------------|-------------------------|--------------------------|
-------------------------|-------------------------|--------------------------|
--3-3-3-3-3--------------|--8-8-8-8-8--------------|--4--4--4--4--6--6--6--6--|
--3-3-3-3-3--------------|--8-8-8-8-8--------------|--4--4--4--4--6--6--6--6--|
--1-1-1-1-1--------------|--6-6-6-6-6--------------|--2--2--2--2--4--4--4--4--|
-------------------------|-------------------------|--------------------------|


  S S S S S E.  H           S S S S S E.  H           S S S S S E.  H         
-------------------------|-------------------------|-------------------------|
-------------------------|-------------------------|-------------------------|
--8-8-8-8-8--------------|--3-3-3-3-3--------------|--8-8-8-8-8--------------|
--8-8-8-8-8--------------|--3-3-3-3-3--------------|--8-8-8-8-8--------------|
--6-6-6-6-6--------------|--1-1-1-1-1--------------|--6-6-6-6-6--------------|
-------------------------|-------------------------|-------------------------|


  E  E  E  E  E  E  E  E     E  E   E   E  E  E   E   E   
--------------------------|------------------------------|
--------------------------|------------------------------|
--4--4--4--4--6--6--6--6--|------------11------------11--|
--4--4--4--4--6--6--6--6--|--------11------------11------|
--2--2--2--2--4--4--4--4--|--9--9----------9--9----------|
--------------------------|------------------------------|


  E  E   E   E  E  E   E   E      E   E   E   E   E   E   E   E   
------------------------------|----------------------------------|
------------------------------|----------------------------------|
------------11------------11--|--11--11--11--11--13--13--11--11--|
--------11------------11------|--11--11--11--11--13--13--11--11--|
--8--8----------8--8----------|---9---9---9---9--11--11---9---9--|
------------------------------|----------------------------------|


   E   E   E   E   E   E   E   E       S S S S S S S S S S S S S S S S  
----------------------------------||-----------------------------------|
----------------------------------||-----------------------------------|
--10--10--10--10--11--11--10--10--||*--8-8-8-8-8-8-8-8-3-3-3-3-3-3-3-3-|
--10--10--10--10--11--11--10--10--||*--8-8-8-8-8-8-8-8-3-3-3-3-3-3-3-3-|
---8---8---8---8---9---9---8---8--||---6-6-6-6-6-6-6-6-1-1-1-1-1-1-1-1-|
----------------------------------||-----------------------------------|


  S S S S S S S S S S S S S S S S    S S S S S S S S S S S S S S S S  
----------------------------------|----------------------------------|
----------------------------------|----------------------------------|
--4-4-4-4-4-4-4-4---------6-6-6-6-|--8-8-8-8-8-8-8-8-3-3-3-3-3-3-3-3-|
--4-4-4-4-4-4-4-4-4-4-4-4-6-6-6-6-|--8-8-8-8-8-8-8-8-3-3-3-3-3-3-3-3-|
--2-2-2-2-2-2-2-2-4-4-4-4-4-4-4-4-|--6-6-6-6-6-6-6-6-1-1-1-1-1-1-1-1-|
------------------2-2-2-2---------|----------------------------------|


                  PM PM    PM PM       
  S S S S S S S S S  S  E  S  S  E     
-------------------------------------||
-------------------------------------||
--4-4-4-4-4-4-4-4-6--6--6--6--6--6--*||
--4-4-4-4-4-4-4-4-6--6--6--6--6--6--*||
--2-2-2-2-2-2-2-2-4--4--4--4--4--4---||
-------------------------------------||


  S S S S S S S S  S  S  S  S  S  S  S  S  
------------------------------------------|
------------------------------------------|
--8-8-8-8-8-8-8-8-10-10-10-10-11-11-11-11-|
------------------------------------------|
--6-6-6-6-6-6-6-6--8--8--8--8--9--9--9--9-|
------------------------------------------|


   S  S  S  S  S  S  S  S  S  S  S  S  S  S  S  S  
--------------------------------------------------|
--------------------------------------------------|
--10-10-10-10-10-10-10-10-11-11-11-11-13-13-13-13-|
--------------------------------------------------|
---8--8--8--8--8--8--8--8--9--9--9--9-11-11-11-11-|
--------------------------------------------------|


   S  S  S  S  S  S  S  S  S  S  S  S  S  S  S  S  
--------------------------------------------------|
--------------------------------------------------|
--11-11-11-11-11-11-11-11-15-15-15-15-11-11-11-11-|
--------------------------------------------------|
---9--9--9--9--9--9--9--9-13-13-13-13--9--9--9--9-|
--------------------------------------------------|


   S  S  S  S  S  S  S  S  S  S  S  S  S  S  S  S    S S S S S H        E.   
--------------------------------------------------|-------------------------|
--------------------------------------------------|-------------------------|
--15-15-15-15-15-15-15-15-13-13-13-13-10-10-10-10-|--8-8-8-8-8--------------|
--------------------------------------------------|--8-8-8-8-8--------------|
--13-13-13-13-13-13-13-13-11-11-11-11--8--8--8--8-|--6-6-6-6-6--------------|
--------------------------------------------------|-------------------------|


  PM PM PM PM PM PM PM PM PM PM PM PM PM PM PM PM  
  S  S  S  S  S  S  S  S  S  S  S  S  S  S  S  S   
--------------------------------------------------|
--------------------------------------------------|
--3--3--3--3--3--3--3--3--3--3--3--3--3--3--3--3--|
--3--3--3--3--3--3--3--3--3--3--3--3--3--3--3--3--|
--1--1--1--1--1--1--1--1--1--1--1--1--1--1--1--1--|
--------------------------------------------------|


  PM PM PM PM PM PM PM PM PM PM PM PM PM PM PM PM                             
  S  S  S  S  S  S  S  S  S  S  S  S  S  S  S  S     E  E  E  E  E  E  E  E   
--------------------------------------------------|--------------------------|
--------------------------------------------------|--------------------------|
--8--8--8--8--8--8--8--8--8--8--8--8--8--8--8--8--|--4--4--4--4--6--6--6--6--|
--8--8--8--8--8--8--8--8--8--8--8--8--8--8--8--8--|--4--4--4--4--6--6--6--6--|
--6--6--6--6--6--6--6--6--6--6--6--6--6--6--6--6--|--2--2--2--2--4--4--4--4--|
--------------------------------------------------|--------------------------|


  E  E   E   E  E  E   E   E     E  E   E   E  E  E   E   E   
------------------------------|------------------------------|
------------------------------|------------------------------|
------------11------------11--|------------11------------11--|
--------11------------11------|--------11------------11------|
--9--9----------9--9----------|--8--8----------8--8----------|
------------------------------|------------------------------|


   E   E   E   E   E   E   E   E      E   E   E   E   E   E   E   E   
----------------------------------|----------------------------------|
----------------------------------|----------------------------------|
--11--11--11--11--13--13--11--11--|--10--10--10--10--11--11--10--10--|
--11--11--11--11--13--13--11--11--|--10--10--10--10--11--11--10--10--|
---9---9---9---9--11--11---9---9--|---8---8---8---8---9---9---8---8--|
----------------------------------|----------------------------------|


    S S S S S S S S S S S S S S S S    S S S S S S S S S S S S S S S S  
|-----------------------------------|----------------------------------|
|-----------------------------------|----------------------------------|
|*--8-8-8-8-8-8-8-8-3-3-3-3-3-3-3-3-|--4-4-4-4-4-4-4-4---------6-6-6-6-|
|*--8-8-8-8-8-8-8-8-3-3-3-3-3-3-3-3-|--4-4-4-4-4-4-4-4-4-4-4-4-6-6-6-6-|
|---6-6-6-6-6-6-6-6-1-1-1-1-1-1-1-1-|--2-2-2-2-2-2-2-2-4-4-4-4-4-4-4-4-|
|-----------------------------------|------------------2-2-2-2---------|


                                                     PM PM    PM PM       
  S S S S S S S S S S S S S S S S    S S S S S S S S S  S  E  S  S  E     
----------------------------------|-------------------------------------||
----------------------------------|-------------------------------------||
--8-8-8-8-8-8-8-8-3-3-3-3-3-3-3-3-|--4-4-4-4-4-4-4-4-6--6--6--6--6--6--*||
--8-8-8-8-8-8-8-8-3-3-3-3-3-3-3-3-|--4-4-4-4-4-4-4-4-6--6--6--6--6--6--*||
--6-6-6-6-6-6-6-6-1-1-1-1-1-1-1-1-|--2-2-2-2-2-2-2-2-4--4--4--4--4--4---||
----------------------------------|-------------------------------------||


  S E  S E  H        E     S E  S E   H        E     S E  S E  H        E   
------------------------|-------------------------|------------------------|
------------------------|-------------------------|------------------------|
--8-8--6-8--------------|--8-8--6-8--11-----------|--8-8--6-8--------------|
--8-8--6-8--------------|--8-8--6-8--11-----------|--8-8--6-8--------------|
--6-6--4-6--------------|--6-6--4-6---9--------L--|--6-6--4-6--------------|
------------------------|-------------------------|------------------------|


  S   E  S   E  S   E  S   E  E    E   
--------------------------------------|
--9s-11--9s-11--9s-11--9s-11--9s--11--|
--------------------------------------|
--------------------------------------|
--------------------------------------|
--------------------------------------|


  S  S  S S  S  S S  S  S S  S  S S  S  E   
-------11------11------11------11------11--|
--9-11----9-11----9-11----9-11----9-11-----|
-------------------------------------------|
-------------------------------------------|
-------------------------------------------|
-------------------------------------------|


  S  S  S S  S  S S  S  S S  S  S S  S  E   
-------11------11------11------11------11--|
--9-11----9-11----9-11----9-11----9-11-----|
-------------------------------------------|
-------------------------------------------|
-------------------------------------------|
-------------------------------------------|


   S  S  S  S  S  S  S  S  S  S  S  S E  E     E  S S S E  H         S  
--14-13-11----14-13-11----14-13-11----------|--------------------------|
-----------11----------11----------11-9--7--|--7----7-9-7--9b--------L-|
--------------------------------------------|-----8--------------------|
--------------------------------------------|--------------------------|
--------------------------------------------|--------------------------|
--------------------------------------------|--------------------------|


    S S S S S S S S S S S S S S S S    S S S S S S S S S S S S S S S S  
|-----------------------------------|----------------------------------|
|-----------------------------------|----------------------------------|
|*--8-8-8-8-8-8-8-8-3-3-3-3-3-3-3-3-|--4-4-4-4-4-4-4-4---------6-6-6-6-|
|*--8-8-8-8-8-8-8-8-3-3-3-3-3-3-3-3-|--4-4-4-4-4-4-4-4-4-4-4-4-6-6-6-6-|
|---6-6-6-6-6-6-6-6-1-1-1-1-1-1-1-1-|--2-2-2-2-2-2-2-2-4-4-4-4-4-4-4-4-|
|-----------------------------------|------------------4-4-4-4---------|


                                                     PM PM    PM PM       
  S S S S S S S S S S S S S S S S    S S S S S S S S S  S  E  S  S  E     
----------------------------------|-------------------------------------||
----------------------------------|-------------------------------------||
--8-8-8-8-8-8-8-8-3-3-3-3-3-3-3-3-|--4-4-4-4-4-4-4-4-6--6--6--6--6--6--*||
--8-8-8-8-8-8-8-8-3-3-3-3-3-3-3-3-|--4-4-4-4-4-4-4-4-6--6--6--6--6--6--*||
--6-6-6-6-6-6-6-6-1-1-1-1-1-1-1-1-|--2-2-2-2-2-2-2-2-4--4--4--4--4--4---||
----------------------------------|-------------------------------------||


  S S S S S S S S  S  S  S  S  S  S  S  S  
------------------------------------------|
------------------------------------------|
--8-8-8-8-8-8-8-8-10-10-10-10-11-11-11-11-|
------------------------------------------|
--6-6-6-6-6-6-6-6--8--8--8--8--9--9--9--9-|
------------------------------------------|


   S  S  S  S  S  S  S  S  S  S  S  S  S  S  S  S  
--------------------------------------------------|
--------------------------------------------------|
--10-10-10-10-10-10-10-10-11-11-11-11-13-13-13-13-|
--------------------------------------------------|
---8--8--8--8--8--8--8--8--9--9--9--9-11-11-11-11-|
--------------------------------------------------|


   S  S  S  S  S  S  S  S  S  S  S  S  S  S  S  S  
--------------------------------------------------|
--------------------------------------------------|
--11-11-11-11-11-11-11-11-15-15-15-15-11-11-11-11-|
--------------------------------------------------|
---9--9--9--9--9--9--9--9-13-13-13-13--9--9--9--9-|
--------------------------------------------------|


   S  S  S  S  S  S  S  S  S  S  S  S  S  S  S  S  
--------------------------------------------------|
--------------------------------------------------|
--15-15-15-15-15-15-15-15-13-13-13-13-10-10-10-10-|
--------------------------------------------------|
--13-13-13-13-13-13-13-13-11-11-11-11--8--8--8--8-|
--------------------------------------------------|


  S S S S S S S S  S  S  S  S  S  S  S  S  
------------------------------------------|
------------------------------------------|
--8-8-8-8-8-8-8-8-10-10-10-10-11-11-11-11-|
------------------------------------------|
--6-6-6-6-6-6-6-6--8--8--8--8--9--9--9--9-|
------------------------------------------|


   S  S  S  S  S  S  S  S  S  S  S  S  S  S  S  S  
--------------------------------------------------|
--------------------------------------------------|
--10-10-10-10-10-10-10-10-11-11-11-11-13-13-13-13-|
--------------------------------------------------|
---8--8--8--8--8--8--8--8--9--9--9--9-11-11-11-11-|
--------------------------------------------------|


   S  S  S  S  S  S  S  S  S  S  S  S  S  S  S  S  
--------------------------------------------------|
--------------------------------------------------|
--11-11-11-11-11-11-11-11-15-15-15-15-11-11-11-11-|
--------------------------------------------------|
---9--9--9--9--9--9--9--9-13-13-13-13--9--9--9--9-|
--------------------------------------------------|


   S  S  S  S  S  S  S  S  S  S  S  S  S  S  S  S    S E  S E  H        E    
--------------------------------------------------|------------------------||
--------------------------------------------------|------------------------||
--15-15-15-15-15-15-15-15-13-13-13-13-10-10-10-10-|--8-8--6-8--------------||
--------------------------------------------------|--8-8--6-8--------------||
--13-13-13-13-13-13-13-13-11-11-11-11--8--8--8--8-|--6-6--4-6--------------||
--------------------------------------------------|------------------------||

comments
We did not receive enough feedback on this tab! Please rate:
1 2 3 4 5
I want to post or [tab]
guest
You may want to rate the tab now too:
select rating
Please do not post tabs as comments. Select "correction" instead!