Oops, an error
Loading. Please wait.

It Doesnt Matter Tab

360 views 1 this week
no commentswrite comment
1 2 3 4 5
please rate
add to favorites launch autoscroll
font size
0
reset
Autoscroll
+/-
esc
set tempo
stop
Contributor
Difficulty
intermediate
WARNING: You are trying to view
                                    content from Ultimate-Guitar.com
                                    in an unauthorized application,
                                    which is prohibited.

                                    Please use an official Ultimate
                                    Guitar Tabs application for iPhone,
                                    iPad or Android to access legitimate
                                    chords, guitar, bass, and drum tabs
                                    from Ultimate-Guitar.com database.

                                    Type "ultimate guitar tabs" in Apple
                                    App Store's or Android Market's
                                    search to find the application.
It doesn't matter by Skunk Anansie
Transcribed by Ivy

Hi everyone! This is my very first tab, but I'm pretty sure it's correct...

Intro/Verse

  A5   C5      A5    C5   A5   C5
e|--------------------------------------|
B|--------------------------------------|
G|-------5--5---------5--5--------5--5--|
D|-7--7--5--5---7--7--5--5--7--7--5--5--|
A|-7--7--3--3---7--7--3--3--7--7--3--3--|
E|-5--5---------5--5--------5--5--------|

  E5 G5 E5 G5
e|--------------------------------------|
B|--------------------------------------|
G|--------------------------------------|
D|----5-----5---------------------------|
A|-2--5--2--5---------------------------|
E|-0--3--0--3---------------------------|

Intro: play this 2 times
Verse: play this 4 times

Prechorus
At the end of the 4th time

Guitar I
  A5
e|--------------------------------------|
B|--------------------------------------|
G|--------------------------------------|
D|--7-----------------------------------|
A|--7-----------------------------------|
E|--5-----------------------------------|

Guitar II
  A5
e|--------------------------------------|
B|--------------------------------------|
G|--14----------------------------------|
D|--14----------------------------------|
A|--12----------------------------------|
E|--------------------------------------|

Both guitars strum these chords fast, listen carefully to get the rhythm.

Chorus
 A5        G5       D5     C5    B5
e|--------------------------------------|
B|--------------------------------------|
G|------------------7------5------4-----|
D|--7-(x8)--5-(x8)--7-(x8)-5-(x4)-4-(x4)|
A|--7-------5-------5------3------2-----|
E|--5-------3---------------------------|

 A5        G5       D5     C5 D5 B5 C5 A5
e|--------------------------------------|
B|--------------------------------------|
G|------------------7------5--7--4--5---|
D|--7-(x8)--5-(x8)--7-(x8)-5--7--4--5--7|
A|--7-------5-------5------3--5--2--3--7|
E|--5-------3--------------------------5|

Repeat intro + verse + prechorus + chorus

There's a lead guitar fill in the chorus (when Skin sings 'Why oh why does this never 
cease to be...'), but you have to play it only during the second chorus.

Guitar II (Lead Fill I)

e|----------------------8-10-7-8--------|
B|-------------7-8-10-8-----------------|
G|---------7-9--------------------------|
D|--7-9-10------------------------------|
A|--------------------------------------|
E|--------------------------------------|

Bridge

Guitar I

   C5  G5   C5  G5 E5
e|--------------------------------------|
B|--------------------------------------|
G|--5-------5---------------------------|
D|--5---5---5---5-----------------------|
A|--3---5---3---5--2--------------------|
E|------3-------3--0--------------------|


   C5  G5   E5
e|--------------------------------------|
B|--------------------------------------|
G|--5-----------------------------------|
D|--5---5-------------------------------|
A|--3---5---2---------------------------|
E|------3---0---------------------------|


There are another 2 lead guitar fills, after Skins sings 'What a scene, what a score, 
what a show'. Lead fill II is played the first time, while lead fill III is played the 
second time.

Guitar II (Lead fill II)

e|--12-13-12----------------------------|
B|-----------13-------------------------|
G|--------------------------------------|
D|--------------------------------------|
A|--------------------------------------|
E|--------------------------------------|

Guitar II (Lead fill III)

e|--12-13-12----------------------------|
B|-----------12-------------------------|
G|--------------------------------------|
D|--------------------------------------|
A|--------------------------------------|
E|--------------------------------------|

Prechorus
Guitar I

   A5   E5   F5   G5
e|--------------------------------------|
B|--------------------------------------|
G|--------------------------------------|
D|--7-7-------3-3--5--------------------|
A|--7-7--2-2--3-3--5--------------------|
E|--5-5--0-0--1-1--3--------------------|

Guitar II

e|--------------------------------------|
B|--------------------------------------|
G|--------------------------------------|
D|--------------------------------------|
A|--------------------------------------|
E|--5---0---1---3-----------------------|

Final Chorus/Outro

Guitar I

 A#5        G#5     D#5    C#5    C5
e|--------------------------------------|
B|--------------------------------------|
G|------------------8------6------5-----|
D|--8-(x8)--6-(x8)--8-(x8)-6-(x4)-5-(x4)|
A|--8-------6-------6------4------3-----|
E|--6-------4---------------------------|


 A#5       G#5    D#5   C#5 D#5 C5 C#5
e|--------------------------------------|
B|--------------------------------------|
G|------------------8------6-8-5-6------|
D|--8-(x8)--6-(x8)--8-(x8)-6-8-5-6------|
A|--8-------6-------6------4-6-3-4------|
E|--6-------4---------------------------|


 A#5        G#5     D#5    C#5    C5
e|--------------------------------------|
B|--------------------------------------|
G|------------------8------6------5-----|
D|--8-(x8)--6-(x8)--8-(x8)-6-(x4)-5-(x4)|
A|--8-------6-------6------4------3-----|
E|--6-------4---------------------------|


 A#5       G#5    D#5  C#5 D#5 C5 C#5 A#5
e|--------------------------------------|
B|--------------------------------------|
G|------------------8------6-8-5-6------|
D|--8-(x8)--6-(x8)--8-(x8)-6-8-5-6--8---|
A|--8-------6-------6------4-6-3-4--8---|
E|--6-------4-----------------------6---|


Guitar II (Lead fill IV)
(to play like Lead fill I)

e|----------------------9-11-8-9--------|
B|-------------8-9-11-9-----------------|
G|---------8-10-------------------------|
D|--8-10-11-----------------------------|
A|--------------------------------------|
E|--------------------------------------|

e|----------------------9-11-8-9-6------|
B|-------------8-9-11-9-----------------|
G|---------8-10-------------------------|
D|--8-10-11-----------------------------|
A|--------------------------------------|
E|--------------------------------------|
comments
We did not receive enough feedback on this tab! Please rate:
print report bad tab
1 2 3 4 5
I want to post or [tab]
guest
You may want to rate the tab now too:
select rating
Please do not post tabs as comments. Select "correction" instead!