Oops, an error
Loading. Please wait.

Run Away Tab

71 views 3 this week
no commentswrite comment
1 2 3 4 5
please rate
add to favorites launch autoscroll
font size
0
reset
Autoscroll
+/-
esc
set tempo
stop
Contributor
Difficulty
novice
WARNING: You are trying to view
                                    content from Ultimate-Guitar.com
                                    in an unauthorized application,
                                    which is prohibited.

                                    Please use an official Ultimate
                                    Guitar Tabs application for iPhone,
                                    iPad or Android to access legitimate
                                    chords, guitar, bass, and drum tabs
                                    from Ultimate-Guitar.com database.

                                    Type "ultimate guitar tabs" in Apple
                                    App Store's or Android Market's
                                    search to find the application.
-------------------------------------------------------------------------------
                             Run Away - Skyfox
-------------------------------------------------------------------------------
Tabbed by: Fred Chandler
E-mail: fred.chandler@sky.com

Tuning: Drop-D

Note- Any power chords covering 3 strings are to be played open, the rest are all muted

Intro Riff (Muted)
e|-------------------------------------------------------------------|
B|-------------------------------------------------------------------|
G|--7-7-7-7-7-7-7-7-8-8-8-7-7-7-3-3-5-5-5-5-5-5-5-5-8-8-8-7-7-7-5-5--|
D|--8-8-8-8-8-8-8-8-8-8-8-8-8-8-3-3-8-8-8-8-8-8-8-8-8-8-8-8-8-8-8-8--|
A|-------------------------------------------------------------------|
D|-------------------------------------------------------------------|

-----------------------------------------------------|
-----------------------------------------------------|
--7-7-7-7-7-7-7-7-8-8-8-7-7-7-3-3-5-5-5-5-5-5-5-5-8--|
--8-8-8-8-8-8-8-8-8-8-8-8-8-8-3-3-8-8-8-8-8-8-8-8-8--|
-----------------------------------------------------|
-----------------------------------------------------|

Main Riff 1
e|----------------------------------------------------------------------|
B|----------------------------------------------------------------------|
G|--7---7---7---7---8-8-8-7---7-------------------------8-8-8-7---7-----|
D|----8---8---8---8-------------8---10---10---10---10---------------10--|-X2
A|-------------------------------------8----8----8----8-----------------|
D|----------------------------------------------------------------------|

Verse 1
e|-------------------------------------------------------------------|
B|-------------------------------------------------------------------|
G|--3----------------------------------------------------------------|
D|--3----------------------------------------------------------------|
A|--1---------------3-3-3-3-3-3-3-3-5-5-5-5-5-5-5-5-1-1-1-1-3-3-3-3--|
D|------------------3-3-3-3-3-3-3-3-5-5-5-5-5-5-5-5-1-1-1-1-3-3-3-3--|

e|-------------------------------------------------------------------|
B|-------------------------------------------------------------------|
G|--3----------------------------------------------------------------|
D|--3---3-3-3-3-3-3-3-3-------------5-5-------------1---1-1-3---3-3--|
A|--1---1-1-1-1-1-1-3-3-3-3-3-3-3-3-5-5-5-5-5-5-5-5-1---1-1-3---3-3--|
D|------------------3-3-3-3-3-3-3-3-5-5-5-5-5-5-5-5-1---1-1-3---3-3--|

e|------------------------------------------------------------------|
B|------------------------------------------------------------------|
G|-3---3-3-3-3-3-3-2---2-2-2-2-2-2----------------------------------|
D|-3---3-3-3-3-3-3-2---2-2-2-2-2-2-5---5-5-5-5-5-5-3---3-3-3-3-3-3--|
A|-1---1-1-1-1-1-1-0---0-0-0-0-0-0-5---5-5-5-5-5-5-3---3-3-3-3-3-3--|
D|---------------------------------5---5-5-5-5-5-5-3---3-3-3-3-3-3--|

e|------------------------------------------------|
B|------------------------------------------------|
G|-3---3-3-3-3-3-3-2---2-2-2-2-2-2----------------|
D|-3---3-3-3-3-3-3-2---2-2-2-2-2-2-5---5-5-5-5-5--|
A|-1---1-1-1-1-1-1-0---0-0-0-0-0-0-5---5-5-5-5-5--|
D|---------------------------------5---5-5-5-5-5--|

Chorus 1
e|------------------------------------------------------------|
B|------------------------------------------------------------|
G|-3-3-3-3-3-3-3----------------------------------------------|
D|-3-3-3-3-3-3-3---3-3-3-3-3-3-3---5-5-5-5-5-5-5---1-1---3-3--|-X2
A|-1-1-1-1-1-1-1---3-3-3-3-3-3-3---5-5-5-5-5-5-5---1-1---3-3--|
D|-----------------3-3-3-3-3-3-3---5-5-5-5-5-5-5---1-1---3-3--|

Main Riff 2
e|----------------------------------------------------------------------|
B|----------------------------------------------------------------------|
G|--7---7---7---7---8-8-8-7---7-------------------------8-8-8-7---7-----|
D|----8---8---8---8-------------8---10---10---10---10---------------10--|-X2
A|-------------------------------------8----8----8----8-----------------|
D|----------------------------------------------------------------------|

Verse 2
e|-------------------------------------------------------------------|
B|-------------------------------------------------------------------|
G|--3----------------------------------------------------------------|
D|--3-3-3-3-3-3-3-3--------------------------------------------------|
A|--1-1-1-1-1-1-1-1-3-3-3-3-3-3-3-3-1-1-1-1-1-1-1-1-1-1-1-1-1-1-1-1--|
D|------------------3-3-3-3-3-3-3-3-1-1-1-1-1-1-1-1-1-1-1-1-1-1-1-1--|

e|-------------------------------------------------------------------|
B|-------------------------------------------------------------------|
G|--3-3--------------------------------------------------------------|
D|--3-3-3-3-3-3-3-3-3-3-------------1-1-------------1---1-1---1---1--|
A|--1-1-1-1-1-1-1-1-3-3-3-3-3-3-3-3-1-1-1-1-1-1-1-1-1-1-1-1-1-1-1-1--|
D|------------------3-3-3-3-3-3-3-3-1-1-1-1-1-1-1-1-1-1-1-1-1-1-1-1--|

e|-------------------------------------------------------------------|
B|-------------------------------------------------------------------|
G|--3-3-3---------------------------3-3-3----------------------------|
D|--3-3-3---3-3-3---1-1-1---3-3-3---3-3-3---3-3-3---1-1-1-1-1-1-1-1--|-X2
A|--1-1-1---3-3-3---1-1-1---3-3-3---1-1-1---3-3-3---1-1-1-1-1-1-1-1--|
E|----------3-3-3---1-1-1---3-3-3-----------3-3-3---1-1-1-1-1-1-1-1--|

e|------------------------------------------------------------------|
B|------------------------------------------------------------------|
G|------------------------------------------------------------------|
D|-3-3-3-3-3-3-3-3-2-2-2-2-2-2-2-2----------------------------------|
A|-1-1-1-1-1-1-1-1-0-0-0-0-0-0-0-0-5-5-5-5-5-5-5-5-3-3-3-3-3-3-3-3--|
D|---------------------------------5-5-5-5-5-5-5-5-3-3-3-3-3-3-3-3--|

e|--------------------------------------------------------------|
B|--------------------------------------------------------------|
G|-------------------------------------------------8-8---7---5--|
D|-3-3-3-3-3-3-3-3-2-2-2-2-2-2-2-2-----------------x-x---x---x--|
A|-1-1-1-1-1-1-1-1-0-0-0-0-0-0-0-0-5-5-5-5-5-5-5-5-6-6---5---3--|
D|---------------------------------5-5-5-5-5-5-5-5--------------|

Chorus 2
e|------------------------------------------------------------|
B|------------------------------------------------------------|
G|-3-3-3-3-3-3-3----------------------------------------------|
D|-3-3-3-3-3-3-3---3-3-3-3-3-3-3---5-5-5-5-5-5-5---1-1---3-3--|-X2
A|-1-1-1-1-1-1-1---3-3-3-3-3-3-3---5-5-5-5-5-5-5---1-1---3-3--|
D|-----------------3-3-3-3-3-3-3---5-5-5-5-5-5-5---1-1---3-3--|

Solo
e|--------------------------------------------|
B|--------------------------------------------|
G|---------10----10-8-7------------------7-7--|
D|--8--8------------------10---10---8-10------|
A|--------------------------------------------|
D|--------------------------------------------|

-----------------------------------------|
-----------------------------------------|
---------7----7--------8---8--10-8-7-----|
----------------10-8-----------------10--|
--10-10----------------------------------|
-----------------------------------------|

--------------------------------------------|
--------------------------------------------|
---------10----10-8-7------------------7-7--|
--8--8------------------10---10---8-10------|
--------------------------------------------|
--------------------------------------------|

---------------------------------------|
---------------------------------------|
---------7----7--------8--7------7-----|
----------------10-8---------10-----8--|
--10-10--------------------------------|
---------------------------------------|

Bridge
e|-------------------------------------------------------------------|
B|-------------------------------------------------------------------|
G|--3----------------------------------------------------------------|
D|--3-3-3-3-3-3-3-3-3-3-3-3-3-3-3-3----------------------------------|
A|--1-1-1-1-1-1-1-1-1-1-1-1-1-1-1-1-3-3-3-3-3-3-3-3-3-3-3-3-3-3-3-3--|
D|----------------------------------3-3-3-3-3-3-3-3-3-3-3-3-3-3-3-3--|

e|-------------------------------------------------------------------|
B|-------------------------------------------------------------------|
G|-------------------------------------------------------------------|
D|------------------------------------------------------------3---3--|
A|--5-5-5-5-5-5-5-5-5-5-5-5-5-5-5-5-1-1-1-1-1-1-1-1-3-3-3-3-3-3-3-3--|
D|--5-5-5-5-5-5-5-5-5-5-5-5-5-5-5-5-1-1-1-1-1-1-1-1-3-3-3-3-3-3-3-3--|

e|-------------------------------------------------------------------|
B|-------------------------------------------------------------------|
G|--3----------------------------------------------------------------|
D|--3-3-3-3-3-3-3-3-3-3-3-3-3-3-3-3----------------------------------|
A|--1-1-1-1-1-1-1-1-1-1-1-1-1-1-1-1-3-3-3-3-3-3-3-3-3-3-3-3-3-3-3-3--|
D|----------------------------------3-3-3-3-3-3-3-3-3-3-3-3-3-3-3-3--|

e|-----------------------------------------------------|
B|-----------------------------------------------------|
G|-----------------------------------------------------|
D|--------------------------------------------------3--|
A|--5-5-5-5-5-5-5-5-5-5-5-5-5-5-5-5-1-1-1-1-1-1-1-1-3--|
D|--5-5-5-5-5-5-5-5-5-5-5-5-5-5-5-5-1-1-1-1-1-1-1-1-3--|

Last Chorus
e|------------------------------------------------------------|
B|------------------------------------------------------------|
G|-3-3-3-3-3-3-3----------------------------------------------|
D|-3-3-3-3-3-3-3---3-3-3-3-3-3-3---5-5-5-5-5-5-5---1-1---3-3--|-X2
A|-1-1-1-1-1-1-1---3-3-3-3-3-3-3---5-5-5-5-5-5-5---1-1---3-3--|
D|-----------------3-3-3-3-3-3-3---5-5-5-5-5-5-5---1-1---3-3--|

e|--------------------------------------------------------------|
B|--------------------------------------------------------------|
G|-3-3----------------------------------------------------------|
D|-3-3-------------3-3-------------5-5-5-5-5-5-5-5-1-1-1-3-3-3--|
A|-1-1-------------3-3-------------5-5-5-5-5-5-5-5-1-1-1-3-3-3--|
D|-----------------3-3-------------5-5-5-5-5-5-5-5-1-1-1-3-3-3--|

e|------------------------------------------------|
B|------------------------------------------------|
G|-3-3-3-3-3-3-3-3-2-2-2-2-2-2-2-2----------------|
D|-3-3-3-3-3-3-3-3-2-2-2-2-2-2-2-2-5-5-5-5-5-5-5--|
A|-1-1-1-1-1-1-1-1-0-0-0-0-0-0-0-0-5-5-5-5-5-5-5--|
D|---------------------------------5-5-5-5-5-5-5--|
comments
We did not receive enough feedback on this tab! Please rate:
1 2 3 4 5
I want to post or [tab]
guest
You may want to rate the tab now too:
select rating
Please do not post tabs as comments. Select "correction" instead!