Oops, an error
Loading. Please wait.

By The Sword Tab

ver5
ver5
More versions @911Tabs.com
3,917 views 12 this week
no commentswrite comment
1 2 3 4 5
excellent!
x 4
Autoscroll
+/-
esc
set tempo
stop
Difficulty
intermediate
WARNING: You are trying to view
                                    content from Ultimate-Guitar.com
                                    in an unauthorized application,
                                    which is prohibited.

                                    Please use an official Ultimate
                                    Guitar Tabs application for iPhone,
                                    iPad or Android to access legitimate
                                    chords, guitar, bass, and drum tabs
                                    from Ultimate-Guitar.com database.

                                    Type "ultimate guitar tabs" in Apple
                                    App Store's or Android Market's
                                    search to find the application.
Standard E tuning

e|-----------------------------------|-----------------------------------|
B|-----------------------------------|--------------------------------3--|
G|--------------------------------2--|-----------------------------0--2--|
D|--------------------------------2--|-----------------------------0--0--|
A|-----------3--------------------0--|-----------5---3-------------x--0--|
E|--0--3--5------5----5--3--0--3-----|--0--3--5-----------5--3--0--3-----|

e|-----------------------------------|-----------------------------------|
B|-----------------------------------|--------------------------------3--|
G|--------------------------------2--|-----------------------------0--2--|
D|-----------5---5----------------3--|-----------------------------0--0--|
A|-----------3---2----------------3--|-----------5---3-------------x--0--|
E|--0--3--5-----------5--3--0--3--1--|--0--3--5-----------5--3--0--3-----|

e|-----|
B|-----|
G|--2--|
D|--2--|
A|--0--|
E|-----|



VERSE 2

e|-------------------------------------|---------------------------------------|
B|-------------------------------------|---------------------------------------|
G|------------5------------------------|------------7----5-------------------7-|
D|------5--7-----7----7-p-5-----5----7-|------5--7------------7-p-5-----5----7-|
A|--/7-----------------------7-------0-|--/7-------------------------7---------|
E|-------------------------------------|---------------------------------------|
                                                         OR


e|--------------------------------------|--------------------------------------|
B|-----------------------------------6--|--------------------------------------|
G|------------5---4------------------5--|------------5-------------------------|
D|------5--7----------7-p-5-----5----3--|------5--7-----7----7-p-5-----5----7--|
A|--/7-----------------------7----------|--/7-----------------------7-------0--|
E|--------------------------------------|--------------------------------------|




                      F
Well there is all we want
                        Am
To live and die by the sword,
                               G
Well they tried to complicate you
                      D
But you left it all behind
                    F
All the worldly possessions
                  Am
Are left for recollections
                      G
And finally it's all gone
|--3----(4)--|
l--3----(4)--|
|--0-----5---|
|--0-----6---|
|--x-----6---|
|--3-----4---|

e|-----------------------------------|-----------------------------------|
B|-----------------------------------|--------------------------------3--|
G|--------------------------------2--|-----------------------------0--2--|
D|--------------------------------2--|-----------------------------0--0--|
A|-----------3--------------------0--|-----------5---3-------------x--0--|
E|--0--3--5------5----5--3--0--3-----|--0--3--5-----------5--3--0--3-----|

e|-----------------------------------|-----------------------------------|
B|-----------------------------------|--------------------------------3--|
G|--------------------------------2--|-----------------------------0--2--|
D|-----------5---5----------------3--|-----------------------------0--0--|
A|-----------3---2----------------3--|-----------5---3-------------x--0--|
E|--0--3--5-----------5--3--0--3--1--|--0--3--5-----------5--3--0--3-----|




VERSE x2

e|-------------------------------------|---------------------------------------|
B|-------------------------------------|---------------------------------------|
G|------------5------------------------|------------7----5-------------------7-|
D|------5--7-----7----7-p-5-----5----7-|------5--7------------7-p-5-----5----7-|
A|--/7-----------------------7-------0-|--/7-------------------------7---------|
E|-------------------------------------|---------------------------------------|
                                                         OR
                                     e|----------------------------------------|
                                     B|-------------------------------------3--|
                                     G|------------7----5-------------------2--|
                                     D|------5--7-----------7-p-5-----5-----0--|
                                     A|--/7------------------------7-----------|
                                     E|----------------------------------------|


e|--------------------------------------|--------------------------------------|
B|-----------------------------------6--|--------------------------------------|
G|------------5---4------------------5--|------------5-------------------------|
D|------5--7----------7-p-5-----5----3--|------5--7-----7----7-p-5-----5----7--|
A|--/7-----------------------7----------|--/7-----------------------7-------0--|
E|--------------------------------------|--------------------------------------|




D       F       Am      G       D       F       Am

--2--   --1--   --0--   --3--   --2--   --1--   --0--          |--3----(4)--|
--3--   --1--   --1--   --3--   --3--   --1--   --1--          |--3----(4)--|
--2--   --2--   --2--   --0--   --3--   --2--   --2--          |--0-----5---|
--0--   --3--   --2--   --0--   --0--   --3--   --2--          |--0-----6---|
-(0)-   --3--   --0--   --x--   -(0)-   --3--   --0--          |--x-----6---|
-----   --1--   -----   --3--   -----   --1--   -----          |--3-----4---|

BRIDGE

e|------------------------------|------------------------------|
B|--5-5-5-5-x-x-5-5-5-5-x-x-7---|--7-7-7-7-x-x-7-7-7-7---x-6---|
G|--5-5-5-5-x-x-5-5-5-5-x-x-7---|--7-7-7-7-x-x-7-7-7-7---x-5---|
D|--5-5-5-5-x-x-5-5-5-5-x-x-7---|--7-7-7-7-x-x-7-7-7-7---x-3---|
A|------------------------------|------------------------------|
E|------------------------------|------------------------------|

e|------------------------------|-----------------------------|
B|--6-6-6-6-x-x-6-6-6-6-x-x-7---|--7-7-7-7-x-x----------------|
G|--5-5-5-5-x-x-5-5-5-5-x-x-7---|--7-7-7-7-x-x----------------|
D|--3-3-3-3-x-x-3-3-3-3-x-x-7---|--7-7-7-7-x-x-3-3-3-3-3-5-5--|
A|------------------------------|--------------3-3-3-3-3-5-5--|
E|------------------------------|--------------1-1-1-1-1-3-3--|

e|------------------------------|------------------------------|
B|--5-5-5-5-x-x-5-5-5-5-x-x-7---|--7-7-7-7-x-x-7-7-7-7---x-6---|
G|--5-5-5-5-x-x-5-5-5-5-x-x-7---|--7-7-7-7-x-x-7-7-7-7---x-5---|
D|--5-5-5-5-x-x-5-5-5-5-x-x-7---|--7-7-7-7-x-x-7-7-7-7---x-3---|
A|------------------------------|------------------------------|
E|------------------------------|------------------------------|

e|------------------------------|-------------------------------|
B|--6-6-6-6-x-x-6-6-6-6-x-x-7---|--7-7-7-7----------------------|
G|--5-5-5-5-x-x-5-5-5-5-x-x-7---|--7-7-7-7-------------------2--|
D|--3-3-3-3-x-x-3-3-3-3-x-x-7---|--7-7-7-7----x-3---x-5------2--|
A|------------------------------|-------------x-3---x-5------0--|
E|------------------------------|-------------x-1---x-3---------|


SOLO

e|------------------------------------|--------------------------------------|
B|------------------------------------|--------------------------------------|
G|--------5--7b--7b--7br-----4--5-----|--------5--7b--7b--7b--7br--5--7------|
D|-5-h-7---------------------------3--|--5h-7----------------------------4---|
A|------------------------------------|--------------------------------------|
E|------------------------------------|--------------------------------------|

e|---------------------------------|--------------------------------------5-|
B|------------8--------------------|----------------------------------------|
G|--------5--10b----10--10--9--10--|--10--9--7--9--7\-5------7-p-5\-4/-5----|
D|-5-h-7---------------------------|----------------------------------------|
A|---------------------------------|----------------------------------------|
E|---------------------------------|----------------------------------------|

         +2
e|---------------------------------------------14brbrbrbr----------|
B|--10--13b---10-------13brbrbr---12brbrbrbr----------------12br---|
G|-----------------12----------------------------------------------|
D|-----------------------------------------------------------------|
A|-----------------------------------------------------------------|
E|-----------------------------------------------------------------|

e|----------17--13--12--13--12\-8--12--8\-7--8--7-h-8-p-7------------------|
B|------13-------------------------------------------------10-----8--(10)--|
G|--14---------------------------------------------------------9-----------|
D|-------------------------------------------------------------------------|
A|-------------------------------------------------------------------------|
E|-------------------------------------------------------------------------|

e|--15b----15b--15--12-------------------------------------|
B|----------------------15b--15----13------13--15------13--|
G|-------------------------------------14----------14------|
D|---------------------------------------------------------|
A|---------------------------------------------------------|
E|---------------------------------------------------------|

e|------------------------------------|
B|--15--13--15br----13------15b--15b--|
G|----------------------14------------|
D|------------------------------------|
A|------------------------------------|
E|------------------------------------|

e|-------------------------------------------------------------------------|
B|--pb15--pb15--pb15--pb15--pb15--pbr15--13--15--13--12--13--12h13p12------|
G|---------------------------------------------------------------------14--|
D|-------------------------------------------------------------------------|
A|-------------------------------------------------------------------------|
E|-------------------------------------------------------------------------|

                 +1/2
e|------------------------------------------------15b--|
B|--------------12br------13---15br--13--15--13--------|
G|------12--14--------14-------------------------------|
D|--14-------------------------------------------------|
A|-----------------------------------------------------|
E|-----------------------------------------------------|

                                                   +2
e|--17--19--19b----19br-p17-19b----pbr19--17------20b--20---17------17------|
B|--------------------------------------------17----------------20-----20b--|
G|--------------------------------------------------------------------------|
D|--------------------------------------------------------------------------|
A|--------------------------------------------------------------------------|
E|--------------------------------------------------------------------------|

                                                             +1/2
e|--17------------------------------------------------------------|
B|------20--17--------------------17--20--------------------------|
G|--------------19br--17--19b-------------prb19------17--19--19b--|
D|----------------------------------------------------------------|
A|----------------------------------------------------------------|
E|----------------------------------------------------------------|



VERSE x2

e|-------------------------------------|---------------------------------------|
B|-------------------------------------|---------------------------------------|
G|------------5------------------------|------------7----5-------------------7-|
D|------5--7-----7----7-p-5-----5----7-|------5--7------------7-p-5-----5----7-|
A|--/7-----------------------7-------0-|--/7-------------------------7---------|
E|-------------------------------------|---------------------------------------|
                                                         OR
                                     e|----------------------------------------|
                                     B|-------------------------------------3--|
                                     G|------------7----5-------------------2--|
                                     D|------5--7-----------7-p-5-----5-----0--|
                                     A|--/7------------------------7-----------|
                                     E|----------------------------------------|


e|--------------------------------------|--------------------------------------|
B|-----------------------------------6--|--------------------------------------|
G|------------5---4------------------5--|------------5-------------------------|
D|------5--7----------7-p-5-----5----3--|------5--7-----7----7-p-5-----5----7--|
A|--/7-----------------------7----------|--/7-----------------------7-------0--|
E|--------------------------------------|--------------------------------------|




D       F       Am      G       D       F       Am

--2--   --1--   --0--   --3--   --2--   --1--   --0--          |--3----(4)--|
--3--   --1--   --1--   --3--   --3--   --1--   --1--          |--3----(4)--|
--2--   --2--   --2--   --0--   --3--   --2--   --2--          |--0-----5---|
--0--   --3--   --2--   --0--   --0--   --3--   --2--          |--0-----6---|
-(0)-   --3--   --0--   --x--   -(0)-   --3--   --0--          |--x-----6---|
-----   --1--   -----   --3--   -----   --1--   -----          |--3-----4---|



e|-----------------------------------|-----------------------------------|
B|-----------------------------------|--------------------------------3--|
G|--------------------------------2--|-----------------------------0--2--|
D|--------------------------------2--|-----------------------------0--0--|
A|-----------3--------------------0--|-----------5---3-------------x--0--|
E|--0--3--5------5----5--3--0--3-----|--0--3--5-----------5--3--0--3-----|

e|-----------------------------------|-----------------------------------|
B|-----------------------------------|--------------------------------3--|
G|--------------------------------2--|-----------------------------0--2--|
D|-----------5---5----------------3--|-----------------------------0--0--|
A|-----------3---2----------------3--|-----------5---3-------------x--0--|
E|--0--3--5-----------5--3--0--3--1--|--0--3--5-----------5--3--0--3-----|



e|----~~~~~~~~~~~~|
B|----~~~~~~~~~~~~|
G|----~~~~~~~~~~~~|
D|---3~~~~~~~~~~~~|
A|---3~~~~~~~~~~~~|
E|---1~~~~~~~~~~~~|
I want to post or [tab]
guest
You may want to rate the tab now too:
select rating
Please do not post tabs as comments. Select "correction" instead!