Oops, an error
Loading. Please wait.

Ghost Bass Tab

ver2
ver2

Whole song

Interactive

More versions @911Tabs.com
786 views 3 this week
1 commentread comment
1 2 3 4 5
excellent!
x 3
Autoscroll
+/-
esc
set tempo
stop
Contributor
Hey! There's an official Ultimate Guitar app which is ideal
for learning songs when you're away from computer. Get the app
WARNING: You are trying to view
                                    content from Ultimate-Guitar.com
                                    in an unauthorized application,
                                    which is prohibited.

                                    Please use an official Ultimate
                                    Guitar Tabs application for iPhone,
                                    iPad or Android to access legitimate
                                    chords, guitar, bass, and drum tabs
                                    from Ultimate-Guitar.com database.

                                    Type "ultimate guitar tabs" in Apple
                                    App Store's or Android Market's
                                    search to find the application.
0:14
G|---------------------------------------------------------------------|
D|---------------------------------------------------------------------|
A|-9-\-2-2-2---2---2-------------------0---0---0---0-------------------|
D|---------------------2---2---2---2-2-----------------2---2---2-2-4-2-|
   4 + 1 + 2 + 3 + 4 + 1 + 2 + 3 + 4 + 1 + 2 + 3 + 4 + 1 + 2 + 3 + 4 +

0:23
G|-----------------------------------------------------------------|
D|-----------------------------------------------------------------|
A|-0-2---------0-2-----2---2---2---0-2---------0-2-----2---2---2---|
D|-----------------------------------------------------------------|  
   1 e + a 2 e + a 3 e + a 4 e + a 1 e + a 2 e + a 3 e + a 4 e + a

G|-----------------------------------------------------------------|
D|-------------------------------------------------------------2---|
G|-----------------------------------------------------------2---2-|
D|-2-------2-------2-------2-------2-------2-------2-------2-------| 
   1 e + a 2 e + a 3 e + a 4 e + a 1 e + a 2 e + a 3 e + a 4 e + a

G|-----------------------------------------------------------------|
D|-----------------------------------------------------------------|
G|---------------------------------------------------------7---\---|
D|-2-------2-------2-------2-------2-------2-------2---------------| 
   1 e + a 2 e + a 3 e + a 4 e + a 1 e + a 2 e + a 3 e + a 4 e + a

G|-----------------------------------------------------------------|
D|-----------------------------------------------------------------|
A|-0-2-2-2-2---0-2---2---2-0-------0-2---2-----0-2---2---2-0-------|
D|---------------------------5-4-----------------------------5-4---|  
   1 e + a 2 e + a 3 e + a 4 e + a 1 e + a 2 e + a 3 e + a 4 e + a

0:42
G|-----------------------------------------------------------------|
D|-------------------------------------------------------------2---|
G|-----------------------------------------------------------2---2-|
D|-2-------2-------2-------2-------2-------2-------2-------2-------| 
   1 e + a 2 e + a 3 e + a 4 e + a 1 e + a 2 e + a 3 e + a 4 e + a

G|-----------------------------------------------------------------|
D|-----------------------------------------------------4-----------|
G|---------------------------------------------------------7-5-\---|
D|-2-------2-------2-------2-------2-------2-------2---------------| 
   1 e + a 2 e + a 3 e + a 4 e + a 1 e + a 2 e + a 3 e + a 4 e + a

G|-----------------------------------------------------------------|
D|-----------------------------------------------------------------|
A|-0-2---2-2---0-2---2---2-0-------0-2---2-2---0-2---2-2-2-0-------|
D|---------------------------5-4-----------------------------5-4-2-|  
   1 e + a 2 e + a 3 e + a 4 e + a 1 e + a 2 e + a 3 e + a 4 e + a

0:59
G|-----------------------------------------------------------------|
D|---------------------------------------------------------7---\---|
G|---------------------------------0---0---0---0---0---0-----------|
D|-5---5---5---5---5---5---5---------------------------------------| 
   1 e + a 2 e + a 3 e + a 4 e + a 1 e + a 2 e + a 3 e + a 4 e + a

1:04
G|-----------------------------------------------------------------|
D|---------------------------------------------------------2h4-4-4-|
A|-2---2---2---2---2---2---2---2---2---2---2---2---2---2-----------|
D|-----------------------------------------------------------------|
   1 e + a 2 e + a 3 e + a 4 e + a 1 e + a 2 e + a 3 e + a 4 e + a

G|-----------------------------------------------------------------|
D|---------------------------------------------------------2h4-----|
A|-2---2---2---2---2---2---2---2---2---2---2---2---2---2-----------|
D|-----------------------------------------------------------------|
   1 e + a 2 e + a 3 e + a 4 e + a 1 e + a 2 e + a 3 e + a 4 e + a

G|-----------------------------------------------------------------|
D|---------------------------------------------------------2h4-4-4-|
A|-2---2---2---2---2---2---2---2---2---2---2---2---2---2-----------|
D|-----------------------------------------------------------------|
   1 e + a 2 e + a 3 e + a 4 e + a 1 e + a 2 e + a 3 e + a 4 e + a

G|-----------------------------------------------------------------|
D|-----------------------------------------------------------------|
A|-2---2---2---2---2---2---2---2---2---2---2---2---2---2---/-9-\---|
D|-----------------------------------------------------------------|
   1 e + a 2 e + a 3 e + a 4 e + a 1 e + a 2 e + a 3 e + a 4 e + a

1:22
G|-----------------------------------------------------------------|
D|-----------------------------------------------------------------|
A|-0---2---2---0h2-----2---2---2---0h2---2-2---0h2-----2---2-2-2-2-|
D|-----------------------------------------------------------------|  
   1 e + a 2 e + a 3 e + a 4 e + a 1 e + a 2 e + a 3 e + a 4 e + a

1:27
G|-----------------------------------------------------------------|
D|-----------------------------------------------------------------|
G|-----------------------------------------------------------------|
D|-2-------2-------2-------2-------2-------2-------2-------2-------| 
   1 e + a 2 e + a 3 e + a 4 e + a 1 e + a 2 e + a 3 e + a 4 e + a

G|-----------------------------------------------------------------|
D|-----------------------------------------------------------------|
G|-------------------------------------------------------5h7---\---|
D|-2-------2-------2-------2-------2-------2-------2---------------| 
   1 e + a 2 e + a 3 e + a 4 e + a 1 e + a 2 e + a 3 e + a 4 e + a

G|-----------------------------------------------------------------|
D|-----------------------------------------------------------------|
A|-0-2-2-2-2---0-2---2---2-0-------0-2---2-----0-2---2---2-0-------|
D|---------------------------5-4-----------------------------5-4-2-|  
   1 e + a 2 e + a 3 e + a 4 e + a 1 e + a 2 e + a 3 e + a 4 e + a

1:42
G|-----------------------------------------------------------------|
D|-----------------------------------------------------------5-----|
A|---------------------------------0-----------0---0---0---7---7-5-|
D|-5-----------5---5-----------------------------------------------| 
   1 e + a 2 e + a 3 e + a 4 e + a 1 e + a 2 e + a 3 e + a 4 e + a

1:47
G|-----------------------------------------------------------------|
D|---------------------------------------------------------2h4-4-4-|
A|-2---2---2---2---2---2---2---2---2---2---2---2---2---2-----------|
D|-----------------------------------------------------------------|
   1 e + a 2 e + a 3 e + a 4 e + a 1 e + a 2 e + a 3 e + a 4 e + a

G|-----------------------------------------------------------------|
D|---------------------------------------------------------2h4-----|
A|-2---2---2---2---2---2---2---2---2---2---2---2---2---2-----------|
D|-----------------------------------------------------------------|
   1 e + a 2 e + a 3 e + a 4 e + a 1 e + a 2 e + a 3 e + a 4 e + a

G|-----------------------------------------------------------------|
D|---------------------------------------------------------2h4-4-4-|
A|-2---2---2---2---2---2---2---2---2---2---2---2---2---2-----------|
D|-----------------------------------------------------------------|
   1 e + a 2 e + a 3 e + a 4 e + a 1 e + a 2 e + a 3 e + a 4 e + a

G|-----------------------------------------------------------------|
D|-----------------------------------------------------------------|
A|-2---2---2---2---2---2---2---2---2---2---2---2-------------------|
D|-----------------------------------------------------1-----2-----|
   1 e + a 2 e + a 3 e + a 4 e + a 1 e + a 2 e + a 3 e + a 4 e + a

2:06
G|-----------------------------------------------------------------|
D|-----------------------------------------------------------------|
A|-----------------------------------------------------------------|
D|-4---------4-4-4-----4---2-4-----2-4-4-----4-4-4-----4-----2-4---|
   1 e + a 2 e + a 3 e + a 4 e + a 1 e + a 2 e + a 3 e + a 4 e + a

G|-----------------------------------------------------------------|
D|-----------------------------------------------------------------|
A|-0-------------------------------2-------------------------------|
D|-----------------------------------------------------1-----2-----|
   1 e + a 2 e + a 3 e + a 4 e + a 1 e + a 2 e + a 3 e + a 4 e + a

2:16
G|-----------------------------------------------------------------|
D|-----------------------------------------------------------------|
A|-----------------------------------------------------------------|
D|-4---------4-4-4-----4---2-4-----2-4-4-------4-------4-----2-4---|
   1 e + a 2 e + a 3 e + a 4 e + a 1 e + a 2 e + a 3 e + a 4 e + a

G|-----------------------------------------------------------------|
D|-----------------------------------------------------------------|
A|-0-------------------------------2-------------------2-----3-----|
D|-----------------------------------------------------------------|
   1 e + a 2 e + a 3 e + a 4 e + a 1 e + a 2 e + a 3 e + a 4 e + a

2:24
G|------------------------------------------------------------------|
D|o-----------------------------------------------------------------|
A|o-4---4---4---4---4---4---4---4-----------------------------------|
D|----------------------------------4---4---4---4---4---4---4---4---|
    1 e + a 2 e + a 3 e + a 4 e + a 1 e + a 2 e + a 3 e + a 4 e + a

G|------------------------------------------------------------------|
D|-----------------------------------------------------------------o|
A|-2---2---2---2---2---2---2---2-----------------------------------o|
D|---------------------------------4---4---4---4---4---4---4---4----|
   1 e + a 2 e + a 3 e + a 4 e + a 1 e + a 2 e + a 3 e + a 4 e + a

2:45
G|-----------------------------------------------------------------|
D|---------------------------------11----9-------------------------|
A|-4---4---4---4---4---4---4-/-10--------------11----10----9---7---|
D|-----------------------------------------------------------------|
   1 e + a 2 e + a 3 e + a 4 e + a 1 e + a 2 e + a 3 e + a 4 e + a

2:51
G|-----------------------------------------------------------------|
D|-----------------------------------------------------------------|
A|-2-------------------------------2-------------------------------|
D|-----------------------------------------------------------------|
   1 e + a 2 e + a 3 e + a 4 e + a 1 e + a 2 e + a 3 e + a 4 e + a

G|-----------------------------------------------------------------|
D|-----------------------------------------------------------------|
A|(2)-----------------------------(2)----------------------14--\---|
D|-----------------------------------------------------------------|
   1 e + a 2 e + a 3 e + a 4 e + a 1 e + a 2 e + a 3 e + a 4 e + a

3:01
G|-----------------------------------------------------------------|
D|---------------------------------------------------------2h4-4-4-|
A|-2---2---2---2---2---2---2---2---2---2---2---2---2---2-----------|
D|-----------------------------------------------------------------|
   1 e + a 2 e + a 3 e + a 4 e + a 1 e + a 2 e + a 3 e + a 4 e + a

G|-----------------------------------------------------------------|
D|-----------------------------------------------------------------|
A|-2---2---2---2---2---2---2---2---2---2---2---2---2---2-/-12--\---|
D|-----------------------------------------------------------------|
   1 e + a 2 e + a 3 e + a 4 e + a 1 e + a 2 e + a 3 e + a 4 e + a

3:10
G|-----------------------------------------------------------------|
D|-----------------------------------------------------------------|
G|-2---------------2---2---2---2-----------------------------------|
D|---------------------------------2---2---2---2---2-------2-------| 
   1 e + a 2 e + a 3 e + a 4 e + a 1 e + a 2 e + a 3 e + a 4 e + a

G|-----------------------------------------------------------------|
D|-----------------------------------------2-----------------------|
G|-0-------0-------0---0---0---0---------------------------9---\---|
D|---------------------------------2---------------2---------------| 
   1 e + a 2 e + a 3 e + a 4 e + a 1 e + a 2 e + a 3 e + a 4 e + a

3:19
G|---------------------------------------------------------------------|
D|---------------------------------------------------------------------|
A|-0-2---------0-2-----2---2---2---0-2-----2---0-2-----2---2---2---2---|
D|---------------------------------------------------------------------|  
   1 e + a 2 e + a 3 e + a 4 e + a 1 e + a 2 e + a 3 e + a 4 e + a

Tabbed by Dave Vucko
comments
We did not receive enough feedback on this tab! Please rate:
print report bad tab
1 2 3 4 5
1 comment total.
0 reply
elizabethykw wrote on April 22 2013, 10:30 pm

good tab, thanks :)

I want to post or [tab]
guest
You may want to rate the tab now too:
select rating
Please do not post tabs as comments. Select "correction" instead!