Oops, an error
Loading. Please wait.

Nothing To Say Tab

ver5
ver5

Solo

Whole song

Interactive

More versions @911Tabs.com
6,869 views 30 this week
3 commentsread comments
1 2 3 4 5
excellent!
x 4
Autoscroll
+/-
esc
set tempo
stop
Contributor
Difficulty
Tuning
intermediate
D G C F A D
NEW! There's an official Ultimate Guitar app which is ideal
for learning songs when you're away from computer. Get the app
WARNING: You are trying to view
                                    content from Ultimate-Guitar.com
                                    in an unauthorized application,
                                    which is prohibited.

                                    Please use an official Ultimate
                                    Guitar Tabs application for iPhone,
                                    iPad or Android to access legitimate
                                    chords, guitar, bass, and drum tabs
                                    from Ultimate-Guitar.com database.

                                    Type "ultimate guitar tabs" in Apple
                                    App Store's or Android Market's
                                    search to find the application.
Tuning:d
       A
       F
       C    (Full step down)
       G
       D
Of all the tabs I've seen for this song,
I liked aweisti's the most, but it wasn't finished 
and it had some things missing. I have kept some 
of aweisti's work here and left it untouched for 
the most part, so deds to him (or her, idefk), 
but I also have my own work in here. For all the 
licks and the guitar break and solo, those are just 
guidelines. They are pretty close to what Slash plays,
but it's a lot easier to just improv all of it. 
Questions, comments, concerns, hit me up at lpfiv@yahoo.com




INTRO
Guitar 1
d|------------------------------------------------------------------|
A|------------------------------------------------------------------|
F|------------------------------------------------------------------| 
C|------------------------------------------------------------------|  
G|----------6-5~-5-6-4--------------6-5~-5-6-4----------------------|   
D|-4~-3h4-7------------7---4~-3h4-7------------7--------------------|    
 |                                                                           
 |Guitar 2
d|------------------------------------------------------------------|
A|------------------------------------------------------------------|
F|------------------------------------------------------------------|
C|----------------------------------8-7~-7-8-6----------------------|
G|-------------------------6~-5h6-9------------9--------------------|
D|------------------------------------------------------------------|


Guitar 1
d|------------------------------------------------------------------|
A|------------------------------------------------------------------|
F|------------------------------------------------------------------| 
C|------------------------------------------------------------------|  
G|----------6-5~-5-6-4--------------6-5~-5-6-4----------------------|   
D|-4~-3h4-7------------7---4~-3h4-7------------7--------------------|    
 |                                                                           
 |Guitar 2
d|------------------------------------------------------------------|
A|------------------------------------------------------------------|
F|------------------------------------------------------------------|
C|----------8-7~-7-8-6----------------7~----------------------------|
G|-6~-5h6-9------------9---6~-5-6-5-6-5~-------9~-------------------|
D|----------------------------3-4-3-4----------7~-------------------|
 |                            * * * *
 |Guitar 3
d|------------------------11--11--11--11--10--10--10--10------------|
A|------------------------14b-14b-14b-14b-13b-13b-13b-13b-----------|
F|------------------------------------------------------------------| 
C|------------------------------------------------------------------|
G|------------------------------------------------------------------|
D|------------------------------------------------------------------|

Guitar 1
d|------------------------------------------------------------------|
A|------------------------------------------------------------------|
F|------------------------------------------------------------------| 
C|------------------------------------------------------------------|  
G|----------------6--5~---------------------------------------------|   
D|-4~---3h4---7-----------------------------------------------------|    
 |                                                                           
 |Guitar 2
d|------------------------------------------------------------------|
A|------------------------------------------------------------------|
F|------------------------------------------------------------------|
C|---------------8--7~----------------------------------------------|
G|-6~---5h6--9------------------------------------------------------|
D|------------------------------------------------------------------|
 |              
 |Guitar 3
d|-11--11--11--11--13---------------|
A|-14b-14b-14b-14b-16b~-------------|
F|----------------------------------| 
C|----------------------------------|
G|----------------------------------|
D|----------------------------------|

PRE-VERSE
Guitar 1
d|------------------------------------------------------------------|
A|------------------------------------------------------------------|
F|------------------------------------------------------------------| 
C|------------------------------------------------------------------|
G|-----7-----10-----7-----9-----6/7---------------------------------|
D|-0-7---0-7----0-7---0-7---0-7-------------------------------------|
 |  * *   * *    * *   * *   * *
 |Guitar 2
d|------------------------------------------------------------------|
A|------------------------------------------------------------------|
F|------------------------------------------------------------------| 
C|------------------------------------------------------------------|
G|------------------------------------------------------------------|
D|------------------------------------------------------------------|


Guitar 1
d|------------------------------------------------------------------|
A|------------------------------------------------------------------|
F|------------------------------------------------------------------| 
C|------------------------------------------------------------------|
G|-----7-----10-----7-----9-----6/7---------------------------------|
D|-0-7---0-7----0-7---0-7---0-7-------------------------------------|
 |  * *   * *    * *   * *   * *
 |Guitar 2
d|------------------------------------------------------------------|
A|------------------------------------------------------------------|
F|------------------------------------------------------------------| 
C|------------------------------------------------------------------|
G|------------------------------------------------------------------|
D|------------------------------------------------------------------|

Guitar 1
d|------------------------------------------------------------------|
A|------------------------------------------------------------------|
F|------------------------------------------------------------------| 
C|------------------------------------------------------------------|
G|-----7-----10-----7-----9-----6/7---------------------------------|
D|-0-7---0-7----0-7---0-7---0-7-------------------------------------|
 |  * *   * *    * *   * *   * *
 |Guitar 2
d|------------------------------------------------------------------|
A|------------------------------------------------------------------|
F|------------------------------------------------------------------| 
C|------------------------------------------------------------------|
G|-2-----2------2-----2---------------------------------------------|
D|-0-----0------0-----0---------------------------------------------|

Guitar 1
d|------------------------------------------------------------------|
A|------------------------------------------------------------------|
F|------------------------------------------------------------------| 
C|------------------------------------------------------------------|
G|-----7-----10-----7-----9-----6/7---------------------------------|
D|-0-7---0-7----0-7---0-7---0-7-------------------------------------|
 |  * *   * *    * *   * *   * *
 |Guitar 2                  (Not entirely sure about this)
d|--------------------------18--------------------------------------|
A|--------------------------17b-------------------------------------|
F|------------------------------------------------------------------| 
C|------------------------------------------------------------------|
G|-2-----2------2-----2---------------------------------------------|
D|-0-----0------0-----0---------------------------------------------|

Guitar 1
d|------------------------------------------------------------------|
A|------------------------------------------------------------------|
F|------------------------------------------------------------------|
C|------------------------------------------------------------------|
G|-----7-----10-----7-----9-----6/7---------------------------------|
D|-0-7---0-7----0-7---0-7---0-7-------------------------------------|
 | * *   * *    * *   * *   * *
 |
d|------------------------------------------------------------------|
A|------------------------------------------------------------------|
F|------------------------------------------------------------------|
C|------------------------------------------------------------------|
G|-----7-----10-----7-----9-----6/7---------------------------------|
D|-0-7---0-7----0-7---0-7---0-7-------------------------------------|
   * *   * *    * *   * *   * *


d|------------------------------------------------------------------|
A|------------------------------------------------------------------|
F|------------------------------------------------------------------|
C|------------------------------------------------------------------|
G|-----7-----10-----7-----9-----6/7---------------------------------|
D|-0-7---0-7----0-7---0-7---0-7-------------------------------------|
 | * *   * *    * *   * *   * *
 |
d|------------------------------------------------------------------|
A|------------------------------------------------------------------|
F|------------------------------------------------------------------|
C|------------------------------------------------------------------|
G|-----7-----10-----7-----9-----6/7---------------------------------|
D|-0-7---0-7----0-7---0-7---0-7-------------------------------------|
   * *   * *    * *   * *   * *


d|------------------------------------------------------------------|
A|------------------------------------------------------------------|
F|------------------------------------------------------------------|
C|------------------------------------------------------------------|
G|-----7-----10-----7-----9-----6/7---------------------------------|
D|-0-7---0-7----0-7---0-7---0-7-------------------------------------|
 | * *   * *    * *   * *   * *
 |
d|------------------------------------------------------------------|(I don't 
A|----------------------8b10-7h8h10p8p7---7-------------------------|know what Slash
F|--------------------------------------9---9b11r9p7----7-----------|plays, but I like 
C|---------------------------------------------------10---10p9p7----|to play this for 
G|-----7-----10-----7--------------------------------------------10-|the lick)
D|-0-7---0-7----0-7-------------------------------------------------|
   * *   * *    * *

d|------------------------------------------------------------------|
A|------------------------------------------------------------------|
F|------------------------------------------------------------------|
C|------------------------------------------------------------------|
G|-----7-----10-----7-----9-----6/7---------------------------------|
D|-0-7---0-7----0-7---0-7---0-7-------------------------------------|
 | * *   * *    * *   * *   * *
 |
d|------------------------------------------------------------------|
A|------------------------------------------------------------------|
F|------------------------------------------------------------------|
C|-7---------------7---7h9p7----7h9h10p9p7\5h7p5p4h5---5------------|
G|---10p9p7-7h9h10---9-------9-----------------------7---7p5p4\7~---|
D|------------------------------------------------------------------|
 

VERSE
Guitar 1
d|------------------------------------------------------------------|
A|------------------------------------------------------------------|
F|------------------7---5--5-4--------------------------------------|
C|------------------7---5--5-4--------------------------------------|
G|------------------5---3--3-2--------------------------------------|
D|-0000000000000000-------------------------------------------------|  
 | ****************
 |Guitar 2
d|------------------------------------------------------------------|
A|------------------------------------------------------------------|
F|------------------------------------------------------------------| 
C|------------------------------------------------------------------|
G|-(7)~-------------------------------------------------------------|
D|------------------------------------------------------------------|


d|------------------------------------------------------------------|
A|------------------------------------------------------------------|
F|----------------------------------7---5--5-4----------------------|
C|----------------------------------7---5--5-4----------------------|
G|----------------------------------5---3--3-2----------------------|
D|-00000000000000000000000000000000---------------------------------|
 | ********************************
 |
d|------------------------------------------------------------------|
A|------------------------------------------------------------------|
F|------------------------------------------------------------------| 
C|------------------------------------------------------------------|
G|------------------------------------------------------------------|
D|------------------------------------------------------------------|


d|------------------------------------------------------------------|
A|------------------------------------------------------------------|
F|----------------------------------7---5--5-4----------------------|
C|----------------------------------7---5--5-4----------------------|
G|----------------------------------5---3--3-2----------------------|
D|-00000000000000000000000000000000---------------------------------|
 | ********************************
 |
d|------------------------------------------------------------------|
A|------------------------------------------------------------------|
F|------------------------------------------------------------------| 
C|------------------------------------------------------------------|
G|------------------------------------------------------------------|
D|------------------------------------------------------------------|


d|------------------------------------------------------------------|
A|------------------------------------------------------------------|
F|----------------------------------7---5---------------------------| 
C|----------------------------------7---5--5-7----------------------|
G|----------------------------------5---3--5-7----------------------|
D|-00000000000000000000000000000000--------3-5----------------------|
 | ********************************
 |
d|------------------------------------------------------------------|
A|------------------------------------------------------------------|
F|------------------------------------------------------------------| 
C|------------------------------------------------------------------|
G|------------------------------------------------------------------|
D|------------------------------------------------------------------|


PRE-CHORUS
Guitar 1
d|-------------------------|    
A|-------------------------|    
F|-7-7--7-7--7-7--9-xx-6/7-|    
C|-x-x--x-x--x-x--x-xx-x-x-|    
G|-5-5--5-5--5-5--7-xx-4/5-|    
D|-------------------------|
 |
 |Guitar 2    
d|------------------------------------------------------------------|
A|------------------------------------------------------------------|
F|------------------------------------------------------------------| 
C|------------------------------------------------------------------|
G|-----7-----10-----7-----9-----6/7---------------------------------|
D|-0-7---0-7----0-7---0-7---0-7-------------------------------------|
   * *   * *    * *   * *   * *
Guitar 1
d|-------------------------|    
A|-------------------------|    
F|-7-7--7-7--7-7--9-xx-6/7-|    
C|-x-x--x-x--x-x--x-xx-x-x-|    
G|-5-5--5-5--5-5--7-xx-4/5-|    
D|-------------------------|
 |
 |Guitar 2    
d|------------------------------------------------------------------|
A|------------------------------------------------------------------|
F|------------------------------------------------------------------| 
C|------------------------------------------------------------------|
G|-----7-----10-----7-----9-----6/7---------------------------------|
D|-0-7---0-7----0-7---0-7---0-7-------------------------------------|
   * *   * *    * *   * *   * *

Guitar 1
d|--------------------------------|
A|--------------------------------|
F|-12-12--12-12--12-12--14--11/12-| 
C|-x--x---x--x---x--x---x---x--x--|
G|-10-10--10-10--10-10--12--9-/10-| 
D|--------------------------------|
 |
 |Guitar 2
d|------------------------------------------------------------------|
A|------------------------------------------------------------------|
F|------------------------------------------------------------------| 
C|------------------------------------------------------------------|
G|-----7-----10-----7-----9-----6/7---------------------------------|
D|-0-7---0-7----0-7---0-7---0-7-------------------------------------|
   * *   * *    * *   * *   * *

Guitar 1
d|--------------------------------|
A|--------------------------------|
F|-12-12--12-12--12-12--14--11/12-| 
C|-x--x---x--x---x--x---x---x--x--|
G|-10-10--10-10--10-10--12--9-/10-| 
D|--------------------------------|
 |
 |Guitar 2
d|------------------------------------------------------------------|
A|------------------------------------------------------------------|
F|------------------------------------------------------------------| 
C|------------------------------------------------------------------|
G|-----7-----10-----7-----9-----6/7---------------------------------|
D|-0-7---0-7----0-7---0-7---0-7-------------------------------------|
   * *   * *    * *   * *   * *


CHORUS
Guitar 1
d|------------------------------------------------------------------|
A|------------------------------------------------------------------|
F|-5-----7----------------------------------------------------------| 
C|-5-----7----------------------------------------------------------|
G|-3-----5------5-----5-----5-----5-----4/5-------------------------|
D|----------0-7---0-7---0-7---0-7---0-7-----------------------------|
 |          * *   * *   * *   * *   * *
 |Guitar 2
d|------------------------------------------------------------------|
A|------------------------------------------------------------------|
F|-5-----7----------------------------------------------------------| 
C|-5-----7----------------------------------------------------------|
G|-3-----5------5-----5-----5-----5-----4/5-------------------------|
D|----------0-7---0-7---0-7---0-7---0-7-----------------------------|
            * *   * *   * *   * *   * * 

Guitar 1
d|------------------------------------------------------------------|
A|------------------------------------------------------------------|
F|-5-----7----------------------------------------------------------| 
C|-5-----7----------------------------------------------------------|
G|-3-----5------5-----5-----5-----5-----4/5-------------------------|
D|----------0-7---0-7---0-7---0-7---0-7-----------------------------|
 |          * *   * *   * *   * *   * *
 |Guitar 2
d|------------------------------------------------------------------|
A|------------------------------------------------------------------|
F|-5-----7----------------------------------------------------------| 
C|-5-----7----------------------------------------------------------|
G|-3-----5------5-----5-----5-----5-----4/5-------------------------|
D|----------0-7---0-7---0-7---0-7---0-7-----------------------------|
            * *   * *   * *   * *   * *

Guitar 1
d|------------------------------------------------------------------|
A|------------------------------------------------------------------|
F|-5-----7----------------------------------------------------------| 
C|-5-----7----------------------------------------------------------|
G|-3-----5------5-----5-----5-----5-----4/5-------------------------|
D|----------0-7---0-7---0-7---0-7---0-7-----------------------------|
 |          * *   * *   * *   * *   * *
 |Guitar 2
d|------------------------------------------------------------------|
A|------------------------------------------------------------------|
F|-5-----7----------------------------------------------------------| 
C|-5-----7----------------------------------------------------------|
G|-3-----5------5-----5-----5-----5-----4/5-------------------------|
D|----------0-7---0-7---0-7---0-7---0-7-----------------------------|
            * *   * *   * *   * *   * *

Guitar 1
d|------------------------------------------------------------------|
A|------------------------------------------------------------------|
F|-5----------------------------------------------------------------| 
C|-5-----7-----7-----9----------------------------------------------|
G|-3-----4-----5-----6----------------------------------------------|
D|------------------------------------------------------------------|
 |
 |Guitar 2
d|------------------------------------------------------------------|
A|------------------------------------------------------------------|
F|-5----------------------------------------------------------------| 
C|-5-----7-----7-----9----------------------------------------------|
G|-3-----4-----5-----6----------------------------------------------|
D|------------------------------------------------------------------|


POST-CHORUS
Guitar 1
d|------------------------------------------------------------------|
A|--------------------------------------------------------------7h8-|
F|-----------------------------------------------------7h8p7h10-----| 
C|-------------------5h6p5----5h6h8-5-6/8-6h8/9-7h8h10--------------|
G|-4-5-7-4-5-7-5-6-8-------h8---------------------------------------|
D|------------------------------------------------------------------|
 | * * * * * * * * *    
 |Guitar 2 (Can either be silent or play this)
d|------------------------------------------------------------------|
A|------------------------------------------------------------------|
F|------------------------------------------------------------------| 
C|------------------------------------------------------------------|
G|------------------------------------------------------------------|
D|-00000000000000000000000000000000000000000000000000000000000000000|
   *****************************************************************

Guitar 1
d|--------------------7-----7h8h10p8h7-----7h6p7h10p7-10p8p7-----7--|
A|-p7----7h8h9-7h8h10---h10------------h10-------------------h10----|
F|----10------------------------------------------------------------| 
C|------------------------------------------------------------------|
G|------------------------------------------------------------------|
D|------------------------------------------------------------------|
 |
 |Guitar 2
d|------------------------------------------------------------------|
A|------------------------------------------------------------------|
F|------------------------------------------------------------------| 
C|------------------------------------------------------------------|
G|------------------------------------------------------------------|
D|-00000000000000000000000000000000000000000000000000000000000000000|
   *****************************************************************

Guitar 1             
d|------------------------------------------------------------------|
A|-10p8p7-10p8p7----7-----------------------------------------------|
F|---------------h9---h9p8p7-9~-------------------------------------| 
C|------------------------------------------------------------------|
G|------------------------------------------------------------------|
D|------------------------------------------------------------------| 
 |
 |Guitar 2
d|------------------------------------------------------------------|
A|------------------------------------------------------------------|
F|------------------------------------------------------------------| 
C|------------------------------------------------------------------|
G|------------------------------------------------------------------|
D|------------------------------------------------------------------|
   

VERSE
Guitar 1
d|------------------------------------------------------------------|
A|------------------------------------------------------------------|
F|------------------7---5--5-4--------------------------------------|
C|------------------7---5--5-4--------------------------------------|
G|------------------5---3--3-2--------------------------------------|
D|-0000000000000000-------------------------------------------------|  
 | ****************
 |Guitar 2
d|------------------------------------------------------------------|
A|------------------------------------------------------------------|
F|------------------------------------------------------------------| 
C|------------------------------------------------------------------|
G|-(7)~-------------------------------------------------------------|
D|------------------------------------------------------------------|

Guitar 1
d|------------------------------------------------------------------|
A|------------------------------------------------------------------|
F|----------------------------------7---5--5-4----------------------|
C|----------------------------------7---5--5-4----------------------|
G|----------------------------------5---3--3-2----------------------|
D|-00000000000000000000000000000000---------------------------------|
 | ********************************
 |Guitar 2 (There are notes played w/out distortion here, completely optional though)
d|------------------------------------------------------------------|(Just play up on
A|------------------------------------------------------------------| the A, F, and C
F|------------------------------------------------------------------| strings with the 
C|------------------------------------------------------------------| chords that are
G|------------------------------------------------------------------| being played by 
D|------------------------------------------------------------------| the lead guitar)

Guitar 1
d|------------------------------------------------------------------|
A|------------------------------------------------------------------|
F|----------------------------------7---5--5-4----------------------|
C|----------------------------------7---5--5-4----------------------|
G|----------------------------------5---3--3-2----------------------|
D|-00000000000000000000000000000000---------------------------------|
 | ********************************
 |Guitar 2
d|------------------------------------------------------------------|
A|------------------------------------------------------------------|
F|------------------------------------------------------------------| 
C|------------------------------------------------------------------|
G|------------------------------------------------------------------|
D|------------------------------------------------------------------|

Guitar 1
d|------------------------------------------------------------------|
A|------------------------------------------------------------------|
F|----------------------------------7---5---------------------------| 
C|----------------------------------7---5--5-7----------------------|
G|----------------------------------5---3--5-7----------------------|
D|-00000000000000000000000000000000--------3-5----------------------|
 | ********************************
 |Guitar 2
d|------------------------------------------------------------------|
A|------------------------------------------------------------------|
F|------------------------------------------------------------------| 
C|------------------------------------------------------------------|
G|------------------------------------------------------------------|
D|------------------------------------------------------------------|


PRE-CHORUS
Guitar 1
d|-------------------------|    
A|-------------------------|    
F|-7-7--7-7--7-7--9-xx-6/7-|    
C|-x-x--x-x--x-x--x-xx-x-x-|    
G|-5-5--5-5--5-5--7-xx-4/5-|    
D|-------------------------|
 |
 |Guitar 2    
d|------------------------------------------------------------------|
A|------------------------------------------------------------------|
F|------------------------------------------------------------------| 
C|------------------------------------------------------------------|
G|-----7-----10-----7-----9-----6/7---------------------------------|
D|-0-7---0-7----0-7---0-7---0-7-------------------------------------|
   * *   * *    * *   * *   * *
Guitar 1
d|-------------------------|    
A|-------------------------|    
F|-7-7--7-7--7-7--9-xx-6/7-|    
C|-x-x--x-x--x-x--x-xx-x-x-|    
G|-5-5--5-5--5-5--7-xx-4/5-|    
D|-------------------------|
 |
 |Guitar 2    
d|------------------------------------------------------------------|
A|------------------------------------------------------------------|
F|------------------------------------------------------------------| 
C|------------------------------------------------------------------|
G|-----7-----10-----7-----9-----6/7---------------------------------|
D|-0-7---0-7----0-7---0-7---0-7-------------------------------------|
   * *   * *    * *   * *   * *

Guitar 1
d|--------------------------------|
A|--------------------------------|
F|-12-12--12-12--12-12--14--11/12-| 
C|-x--x---x--x---x--x---x---x--x--|
G|-10-10--10-10--10-10--12--9-/10-| 
D|--------------------------------|
 |
 |Guitar 2
d|------------------------------------------------------------------|
A|------------------------------------------------------------------|
F|------------------------------------------------------------------| 
C|------------------------------------------------------------------|
G|-----7-----10-----7-----9-----6/7---------------------------------|
D|-0-7---0-7----0-7---0-7---0-7-------------------------------------|
   * *   * *    * *   * *   * *

Guitar 1
d|--------------------------------|
A|--------------------------------|
F|-12-12--12-12--12-12--14--11/12-| 
C|-x--x---x--x---x--x---x---x--x--|
G|-10-10--10-10--10-10--12--9-/10-| 
D|--------------------------------|
 |
 |Guitar 2
d|------------------------------------------------------------------|(Again, I don't
A|------------------------------------------------------------------|know what he plays
F|12p10p9h12p10p9---------------------------------------------------|but this is what I
C|----------------12p10p9h12p10p9-------------------------9h10h12p--|like)
G|--------------------------------12p10p9---------9h10h12-----------|
D|----------------------------------------9h10h12-------------------|
   (Guitar 2 continued, still played before chorus)
d|------------------------------------------------------------------|
A|------------------------------------------------------------------|
F|------------------------------------------------------------------| 
C|-10p9-7p5p4h5p4---------------------------------------------------|
G|----------------4h5h7~--------------------------------------------|
D|------------------------------------------------------------------|


CHORUS
Guitar 1
d|------------------------------------------------------------------|
A|------------------------------------------------------------------|
F|-5-----7----------------------------------------------------------| 
C|-5-----7----------------------------------------------------------|
G|-3-----5------5-----5-----5-----5-----4/5-------------------------|
D|----------0-7---0-7---0-7---0-7---0-7-----------------------------|
 |          * *   * *   * *   * *   * *
 |Guitar 2
d|------------------------------------------------------------------|
A|------------------------------------------------------------------|
F|-5-----7----------------------------------------------------------| 
C|-5-----7----------------------------------------------------------|
G|-3-----5------5-----5-----5-----5-----4/5-------------------------|
D|----------0-7---0-7---0-7---0-7---0-7-----------------------------|
            * *   * *   * *   * *   * * 

Guitar 1
d|------------------------------------------------------------------|
A|------------------------------------------------------------------|
F|-5-----7----------------------------------------------------------| 
C|-5-----7----------------------------------------------------------|
G|-3-----5------5-----5-----5-----5-----4/5-------------------------|
D|----------0-7---0-7---0-7---0-7---0-7-----------------------------|
 |          * *   * *   * *   * *   * *
 |Guitar 2
d|------------------------------------------------------------------|
A|------------------------------------------------------------------|
F|-5-----7----------------------------------------------------------| 
C|-5-----7----------------------------------------------------------|
G|-3-----5------5-----5-----5-----5-----4/5-------------------------|
D|----------0-7---0-7---0-7---0-7---0-7-----------------------------|
            * *   * *   * *   * *   * *

Guitar 1
d|------------------------------------------------------------------|
A|------------------------------------------------------------------|
F|-5-----7----------------------------------------------------------| 
C|-5-----7----------------------------------------------------------|
G|-3-----5------5-----5-----5-----5-----4/5-------------------------|
D|----------0-7---0-7---0-7---0-7---0-7-----------------------------|
 |          * *   * *   * *   * *   * *
 |Guitar 2
d|------------------------------------------------------------------|
A|------------------------------------------------------------------|
F|-5-----7----------------------------------------------------------| 
C|-5-----7----------------------------------------------------------|
G|-3-----5------5-----5-----5-----5-----4/5-------------------------|
D|----------0-7---0-7---0-7---0-7---0-7-----------------------------|
            * *   * *   * *   * *   * *

Guitar 1
d|------------------------------------------------------------------|
A|------------------------------------------------------------------|
F|-5----------------------------------------------------------------| 
C|-5-----7-----7-----9----------------------------------------------|
G|-3-----4-----5-----6----------------------------------------------|
D|------------------------------------------------------------------|
 |
 |Guitar 2
d|------------------------------------------------------------------|
A|------------------------------------------------------------------|
F|-5----------------------------------------------------------------| 
C|-5-----7-----7-----9----------------------------------------------|
G|-3-----4-----5-----6----------------------------------------------|
D|------------------------------------------------------------------|

SOLO     (Guitar 2 play verse under)
Guitar 1
d|------------------------------------------------------------------|
A|------------------------------------------------------------------|
F|-9~-11/12-11-9-7/9-7-7\5-5~-4-5\4~--------------------------------| 
C|-x--x--x--x--x-x-x-x-x-x-x--x-x-x---------------------------------|
G|-7~-9-/10-9--7-5/7-5-5\3-3~-2-3\2~----5h7p5h7p5h7p5h7p5h7p5h7p5h--|
D|-----------------------------------0------------------------------|

Guitar 1
d|-----------------------------------------------------------------------|
A|-----------------------------------------------------------------------|
F|-----------------------------------------------------------------------|
C|-------------------------------------------9h10h12p10p9----------------|
G|7p5h75h7p9-7-9h10p9\7h9/10-9h10h12p10p9h10--------------h12p10p9h10----|
D|-----------------------------------------------------------------------|

Guitar 1
d|----------------------------------------------------------7h8h10p8p7----7-----|
A|---------------------------------------------------7h8h10------------10---10--|
F|-------------------------------------7h9h10p7h9-10----------------------------|
C|-9h10h12p10p9-------------9h10p9\7h9------------------------------------------|
G|--------------h12p10p9h10-----------------------------------------------------|
D|------------------------------------------------------------------------------|

Guitar 1
d|-----------------------------------------------------------7------------|
A|-8p7---7h8h10-10b12~~--10br12~--10b12r10-8-10-7h8p7---------------------|
F|-----9----------------------------------------------9---7-9-9~----------|
C|------------------------------------------------------9-----------------|
G|------------------------------------------------------------------------|
D|------------------------------------------------------------------------|

Guitar 1
d|----------------------------------------------------7h8h10p8p7----7h8p7-|
A|-x10b12----10b12r10p8-7-8-7-7b8-7b8-7b8~-8p7h8h10p8------------10-------|
F|-x----------------------------------------------------------------------|
C|-x----------------------------------------------------------------------|
G|-x----------------------------------------------------------------------|
D|------------------------------------------------------------------------|

Guitar 1
d|-h8/10p8h10/12p10h12/14\12p10h12/14h15p14p12h14h15p14p12----14p12h15p-|
A|---------------------------------------------------------15-----------|
F|----------------------------------------------------------------------|
C|----------------------------------------------------------------------|
G|----------------------------------------------------------------------|
D|----------------------------------------------------------------------|

Guitar 1
d|-12h15/17p15h17/19h20-20 20b22~-20b22r20/17h19h20p19p17-----------|
A|--------------------------------------------------------18b-------|
F|------------------------------------------------------------------|
C|------------------------------------------------------------------|
G|------------------------------------------------------------------|
D|------------------------------------------------------------------|

Guitar 1 (Guitar 2 play pre-chorus, but only first part)
d|-15p14p12--12---------15p14p12--12---------15p14p12--12-----------|
A|---------15--15p13p12---------15--15p13p12---------15--15p13p12---|
F|------------------------------------------------------------------|
C|------------------------------------------------------------------|
G|------------------------------------------------------------------|
D|------------------------------------------------------------------|

Guitar 1
d|-15p14p12--12---------15p14p12--12--------------------------------|
A|---------15--15p13p12---------15--15p13p12-15p14p12--12-----------|
F|---------------------------------------------------15--15p14p12---|
C|------------------------------------------------------------------|
G|------------------------------------------------------------------|
D|------------------------------------------------------------------|

Guitar 1
d|-15p14p12--12-----------------------------------------------------|
A|---------15--15p13p12---------------------------------------------|
F|----------------------15p14p12--12--------------------------------|
C|------------------------------15--15p14p13-15p14p12--16p15p13-----|
G|---------------------------------------------------15--------16---|
D|------------------------------------------------------------------|

Guitar 1
d|------------------------------------------------------------------|
A|-----------------------------------------------17-----------------|
F|-17p16p14---18p17p15---19p18p17h19b21r19p17-19----19b21~~---------|
C|---------17---------18--------------------------------------------|
G|------------------------------------------------------------------|
D|------------------------------------------------------------------|


BREAKDOWN
Guitar 1
d|---------------------------------------------------------------------|
A|-8~---7-8-10-7~--8-10-8~---7-8-10-7~--7-8/13~--15b17-15-13-15~--15b--|
F|---------------------------------------------------------------------|
C|---------------------------------------------------------------------|
G|---------------------------------------------------------------------|
D|---------------------------------------------------------------------|
 |
 |Guitar 2
d|------------------------------------------------------------------|
A|------------------------------------------------------------------|
F|-5~----------7~-------5~-----------7~------5~---------------7~----| 
C|-5~----------7~-------5~-----------7~------5~---------------7~----|
G|-3~----------5~-------3~-----------5~------3~---------------5~----|
D|------------------------------------------------------------------|


Guitar 1
d|-15b17r~--17~-17~--19~-19~----------------------------------------|
A|------------------------------------------------------------------|
F|------------------------------------------------------------------|
C|------------------------------------------------------------------|
G|------------------------------------------------------------------|
D|------------------------------------------------------------------|
 |
 |Guitar 2
d|------------------------------------------------------------------|
A|------------------------------------------------------------------|
F|------------------------------------------------------------------| 
C|-5~--------7~--7~---9~--------------------------------------------|
G|-3~--------4~--5~---6~--------------------------------------------|
D|------------------------------------------------------------------|


Guitar 1                 (Tremolo pick these)
d|-19b21~----------------22pb24--21--20--19--18--17-----------------|
A|------------------------------------------------------------------|
F|------------------------------------------------------------------|
C|------------------------------------------------------------------|
G|------------------------------------------------------------------|
D|------------------------------------------------------------------|
 |
 |Guitar 2
e|------------------------------------------------------------------|
B|------------------------------------------------------------------|
G|------------------------------------------------------------------|
D|------------------------------------------------------------------|
A|------------------------------------------------------------------|
D|-00000000000000000000000000000000000000000000000000000000000000000|
   *****************************************************************


CHORUS
Guitar 1
d|------------------------------------------------------------------|
A|------------------------------------------------------------------|
F|-5-----7----------------------------------------------------------| 
C|-5-----7----------------------------------------------------------|
G|-3-----5------5-----5-----5-----5-----4/5-------------------------|
D|----------0-7---0-7---0-7---0-7---0-7-----------------------------|
 |          * *   * *   * *   * *   * *
 |Guitar 2
d|------------------------------------------------------------------|
A|------------------------------------------------------------------|
F|-5-----7----------------------------------------------------------| 
C|-5-----7----------------------------------------------------------|
G|-3-----5------5-----5-----5-----5-----4/5-------------------------|
D|----------0-7---0-7---0-7---0-7---0-7-----------------------------|
            * *   * *   * *   * *   * * 

Guitar 1
d|------------------------------------------------------------------|
A|------------------------------------------------------------------|
F|-5-----7----------------------------------------------------------| 
C|-5-----7----------------------------------------------------------|
G|-3-----5------5-----5-----5-----5-----4/5-------------------------|
D|----------0-7---0-7---0-7---0-7---0-7-----------------------------|
 |          * *   * *   * *   * *   * *
 |Guitar 2
d|------------------------------------------------------------------|
A|------------------------------------------------------------------|
F|-5-----7----------------------------------------------------------| 
C|-5-----7----------------------------------------------------------|
G|-3-----5------5-----5-----5-----5-----4/5-------------------------|
D|----------0-7---0-7---0-7---0-7---0-7-----------------------------|
            * *   * *   * *   * *   * *

Guitar 1
d|------------------------------------------------------------------|
A|------------------------------------------------------------------|
F|-5-----7----------------------------------------------------------| 
C|-5-----7----------------------------------------------------------|
G|-3-----5------5-----5-----5-----5-----4/5-------------------------|
D|----------0-7---0-7---0-7---0-7---0-7-----------------------------|
 |          * *   * *   * *   * *   * *
 |Guitar 2
d|------------------------------------------------------------------|
A|------------------------------------------------------------------|
F|-5-----7----------------------------------------------------------| 
C|-5-----7----------------------------------------------------------|
G|-3-----5------5-----5-----5-----5-----4/5-------------------------|
D|----------0-7---0-7---0-7---0-7---0-7-----------------------------|
            * *   * *   * *   * *   * *

OUTRO
Guitar 1
d|------------------------------------------------------------------|
A|------------------------------------------------------------------|
F|------------------------------------------------------------------|
C|------------------------------------------------------------------|
G|------------------------------------------------------------------|
D|-000000000000000000000000000000000-1515151515151515\16161616\1515-|
 | ********************************* ****************************** 
 |Guitar 2
d|------------------------------------------------------------------|
A|------------------------------------------------------------------|
F|------------------------------------------------------------------| 
C|------------------------------------------------------------------|
G|------------------------------------------------------------------|
D|------------------------------------------------------------------|

Guitar 1
d|------------------------------------------------------------------|
A|------------------------------------------------------------------|
F|------------------------------------------------------------------|
C|-----------------------------7~------------------7~---------------|
G|------12-11-10-9-8-7--6------5~--------6~--------5~---------------|
D|1515--10--9--8-7-6-5--4----------------4~-------------------------|
 |****  ** * * * * * *
 |Guitar 2 (feedback)
d|------------------------------------------------------------------|
A|------------------------------------------------------------------|
F|------------------------------------------------------------------| 
C|------------------------------------------------------------------|
G|------------------------------------------------------------------|
D|------------------------------------------------------------------|


d|------------------------------------------------------------------|
A|------------------------------------------------------------------|
F|------------------------------------------------------------------| 
C|------------7~----------------------7~----------------------------|  
G|-6~---------5~-----------6~---------5~----------------------------|   
D|-4~----------------------4~---------------------------------------|    
 |                                                                           
 |
d|------------------------------------------------------------------|
A|------------------------------------------------------------------|
F|------------------------------------------------------------------|
C|----------8-7~-7-8-6----------------7~----------------------------|
G|-6~-5h6-9------------9---6~-5-6-5-6-5~-------9~-------------------|
D|----------------------------3-4-3-4----------7~-------------------|
 |                            * * * *
 |Guitar 3
d|------------------------11--11--11--11--10--10--10--10------------|
A|------------------------14b-14b-14b-14b-13b-13b-13b-13b-----------|
F|------------------------------------------------------------------| 
C|------------------------------------------------------------------|
G|------------------------------------------------------------------|
D|------------------------------------------------------------------|
End however you want, it basically just repeat the intro with feedback and shit, 
so have fun with it.
comments
print report bad tab
3 comments total.
0 reply
brownfoxjumps wrote on March 26 2011, 10:05 pm

nice tab! mustve been a pain in the ass to tab out.

0 reply
Arct wrote on May 17 2013, 03:25 pm

FINALLY someone made that badass solo... THX MAN!!!!! :D

0 reply
Arct wrote on May 17 2013, 03:26 pm

FINALLY someone made that badass solo. THX MAN!!!!! :D

I want to post or [tab]
guest
You may want to rate the tab now too:
select rating
Please do not post tabs as comments. Select "correction" instead!