Oops, an error
Loading. Please wait.

Watch This Tab

ver2
ver2

Whole song

Interactive

More versions @911Tabs.com
2,418 views 36 this week
no commentswrite comment
1 2 3 4 5
excellent!
x 2
Autoscroll
+/-
esc
set tempo
stop
Contributor
Difficulty
Tuning
Tabbers playing skills
intermediate
D G C F A D
intermediate
Hey! There's an official Ultimate Guitar app which is ideal
for learning songs when you're away from computer. Get the app
WARNING: You are trying to view
                                    content from Ultimate-Guitar.com
                                    in an unauthorized application,
                                    which is prohibited.

                                    Please use an official Ultimate
                                    Guitar Tabs application for iPhone,
                                    iPad or Android to access legitimate
                                    chords, guitar, bass, and drum tabs
                                    from Ultimate-Guitar.com database.

                                    Type "ultimate guitar tabs" in Apple
                                    App Store's or Android Market's
                                    search to find the application.
Watch This - Slash

I have divided the parts into Rhythm and Lead guitar to make it easier to read! I do not 
take credit for this tab. I have simply made a text file (though it was still 
painstaking) of one of the Tab Pro tabs for this song! Enjoy!

Tuning: D A D G B E

Rhythm Guitar

Intro

  E E E E E E E E   W                 E E E E E E E E   E E E E E E E E
|-----------------|-----------------|-----------------|-----------------|
|-----------------|-----------------|-----------------|-----------------|
|-----------------|-----------------|-----------------|-----------------|
|-----------------|-----------------|-----------------|-----------------|
|---5-3---5-2---1-|-----------------|---5-3---5-2---1-|---5-2---1-------|
|-0-----0-----0---|-----------------|-0-----0-----0---|-0-----0---0b3r0-|

Main Theme 1

  E E E E E E E E   E E E E E E E E
|-----------------|-----------------|
|-----------------|-----------------|
|-----------------|-----------------| Play 4x
|-----------------|-----------------|
|---5-3---5-2---1-|---5-1---0-------|
|-0-----0-----0---|-0-----0---0-5-3-|

  Pm--------------------------------|
  E E E E E E E E   E E E E E E E E
|-----------------|-----------------|
|-----------------|-----------------|
|-----------------|-----------------| Play 3x
|-----------------|-----------------|
|---5-3---5-2---0-|---5-1---0-------|
|-0-----0-----0---|-0-----0---0-5-3-|

  Pm--------------------------------|
  E E E E E E E E   E E E E E E E E
|-----------------|-----------------|
|-----------------|-----------------|
|-----------------|-----------------| Play 9x
|-----------------|-----------------|
|---5-3---5-2---1-|---5-1---0-------|
|-0-----0-----0---|-0-----0---0-5-3-|

Riff 2 (Bridge)

  Pm--------------------------------|
  E E E E E E E E   E E E E E E E E   E E E E E E E E   E E E E E E E E
|-----------------|-----------------|-----------------|-----------------|
|-----------------|-----------------|-----------------|-----------------|
|---------3-----5-|---6-5---3-5-----|-----------------|-----------------|
|-3-6-5-3---6-3---|-3-----3-----6-5-|-----------------|-----------------|
|---------1-----3-|---4-3---1-3-----|-0-7-6-0-7-5-0-4-|-0-7-4-0-3-0-0-3-|
|-3-6-5-3---6-3---|-3-----3-----6-5-|-----------------|-----------------|

  E E E E E E E E   E E E E E E E E   E E E E E E E E   E E E E E E E E
|-----------------|-----------------|-----------------|-----------------|
|-----------------|-----------------|-----------------|-----------------|
|-----------------|-----------------|-----------------|-----------------|
|-----------------|-----------------|-----------------|-----------------|
|-0-7-6-0-7-5-0-4-|-0-7-4-0-3-0-0-3-|-0-7-6-0-7-5-0-4-|-0-7-4-0-3-0-0-3-|
|-----------------|-----------------|-----------------|-----------------|

  E E E E E E E E   E E E E E E E E   E E E E E E E E   W
|-----------------|-----------------|-----------------|------------------|
|-----------------|-----------------|---7-5---7-8---11|------------------|
|-----------------|-----------------|---7-5---7-7---10|------------------|
|---5-7---7-5---4-|---7-5---4---2-1-|-0-0-0---0-0---8-|------------------|
|-0-----0-----0---|-0-----0---0-----|-----------------|------------------|
|-----------------|-----------------|-----------------|------------------|

  E E E E E E E E   W
|-----------------|-----------------|
|---7-5---7-8---11|-----------------|
|---7-5---7-7---10|-----------------|
|-0-0-0---0-0---8-|-----------------|
|-----------------|-----------------|
|-----------------|-----------------|

Main Theme 2

  E E E E E E E E   E E E E E E E E
|-----------------|-----------------|
|-----------------|-----------------|
|-----------------|-----------------| Play 7x
|-----------------|-----------------|
|---5-3---5-2---1-|---5-1---0-------|
|-0-----0-----0---|-0-----0---0-5-3-|


  E E E E E E E E   E E E E E E E E
|-----------------|-----------------|
|-----------------|-----------------|
|-----------------|-----------------|
|-----------------|-----------------|
|---5-3---5-2---1-|---5-1---0-----0-|
|-0-----0-----0---|-0-----0---0-5---|

Half Time Feel, Talkbox Solo

  Q   Q   Q   Q     Q   E E + H       Q   Q   Q   Q     Q   E Q   E E E
|-----------------|-1---------------|-----------------|-1---------------|
|---------3-------|-----3-----------|---------3-------|-----3-----3-----|
|-----3-------3---|-------3---3-----|-----3-------3---|-------3-----3-2-|
|-----------------|-----------------|-----------------|-----------------|
|-1---------------|-----------------|-1---------------|-----------------|
|-----------------|-----------------|-----------------|-----------------|

  E Q   E Q   E E + E E Q   E E Q     E Q   E Q   E E + E E Q   E E E E
|-0-2-----0-----2-|-2-------0-------|-0-2-----0-----2-|-2-------0-------|
|-------3-----3---|---3-------3-----|-------3-----3---|---3-------3-----|
|-----------------|-----2-------2---|-----------------|-----2-------2-3-|
|-----------------|-----------------|-----------------|-----------------|
|-----------------|-----------------|-----------------|-----------------|
|-----------------|-----------------|-----------------|-----------------|

  Q   E E E E E E + Q   E E H         Q   E E E E E E + Q   E E Q   Q
|-1-------0-----1-|-1-------0-------|-1-------0-----1-|-1-------0-------|
|-----3-----3-----|-----3-----------|-----3-----3-----|-----3-----------|
|-------3-----3---|-------3---------|-------3-----3---|-------3-----3---|
|-----------------|-----------------|-----------------|-----------------|
|-----------------|-----------------|-----------------|-----------------|
|-----------------|-----------------|-----------------|-----------------|

  E Q   E Q   E E + E E Q   E E Q     E Q   E Q   E E + E E Q   E E E E
|-0-2-----0-----2-|-2-------0-------|-0-2-----0-----2-|-2-------0-------|
|-------3-----3---|---3-------3-----|-------3-----3---|---3-------3-----|
|-----------------|-----2-------2---|-----------------|-----2-------2-3-|
|-----------------|-----------------|-----------------|-----------------|
|-----------------|-----------------|-----------------|-----------------|
|-----------------|-----------------|-----------------|-----------------|

  Q   E E E E E E + Q   E E Q   Q     Q   E E E E E E + Q   E E Q   Q
|-1-------0-----1-|-1-------0-------|-1-------0-----1-|-1-------0-------|
|-----3-----3-----|-----3-----------|-----3-----3-----|-----3-----------|
|-------3-----3---|-------3-----3---|-------3-----3---|-------3-----3---|
|-----------------|-----------------|-----------------|-----------------|
|-----------------|-----------------|-----------------|-----------------|
|-----------------|-----------------|-----------------|-----------------|

  E Q   E Q   E E + E E Q   E E Q     E Q   E Q   E E + E E Q   E E E E
|-0-2-----0-----2-|-2-------0-------|-0-2-----0-----2-|-2-------0-------|
|-------3-----3---|---3-------3-----|-------3-----3---|---3-------3-----|
|-----------------|-----2-------2---|-----------------|-----2-------2-3-|
|-----------------|-----------------|-----------------|-----------------|
|-----------------|-----------------|-----------------|-----------------|
|-----------------|-----------------|-----------------|-----------------|

  Q   E E E E E E + Q   E E Q   Q     Q   E E E E E E + Q   E E Q   Q
|-1-------0-----1-|-1-------0-------|-1-------0-----1-|-1-------0-------|
|-----3-----3-----|-----3-----------|-----3-----3-----|-----3-----------|
|-------3-----3---|-------3-----3---|-------3-----3---|-------3-----3---|
|-----------------|-----------------|-----------------|-----------------|
|-----------------|-----------------|-----------------|-----------------|
|-----------------|-----------------|-----------------|-----------------|

  E E Q   E E Q     E E E E Q   E E   E E Q   E E E E   E E Q   E E Q
|---------0-------|-------0---------|-3-------0-------|-----------------|
|---2-------2-----|-2---2---2---2---|---3-------3-----|---3-------3-----|
|-0---0-------0---|---0-----------0-|-----0-------0---|-0---0---0---0---|
|-----------------|-----------------|-----------------|-----------------|
|-----------------|-----------------|-----------------|-----------------|
|-----------------|-----------------|-----------------|-----------------|

Riff 2 Returns

  Pm--------------------------------------------------------------------|
  E E E E E E E E   E E E E E E E E   E E E E E E E E   E E E E E E E E
|-----------------|-----------------|-----------------|-----------------|
|-----------------|-----------------|-----------------|-----------------|
|---------3-----5-|---6-5---3-5-----|---------3-----5-|---6-5---3-5-----|
|-3-6-5-3---6-3---|-3-----3-----6-5-|-3-6-5-3---6-3---|-3-----3-----6-5-|
|---------1-----3-|---4-3---1-3-----|---------1-----3-|---4-3---1-3-----|
|-3-6-5-3---6-3---|-3-----3-----6-5-|-3-6-5-3---6-3---|-3-----3-----6-5-|

  E E E E E E E E   E E E E E E E E   E E E E E E E E   E E E E E E E E
|-----------------|-----------------|-----------------|-----------------|
|-----------------|-----------------|-----------------|-----------------|
|-----------------|-----------------|-----------------|-----------------|
|-----------------|-----------------|---5-7---7-5---4-|---7-5---4---2-1-|
|-0-7-6-0-7-5-0-4-|-0-7-4-0-3-0-0-3-|-0-----0-----0---|-0-----0---0-----|
|-----------------|-----------------|-----------------|-----------------|

  E E E E E E E E   E E E E E E E E
|-----------------|-----------------|
|-----------------|-----------------|
|-----------------|-----------------| Play 4x
|-----------------|-----------------|
|---5-3---5-2---1-|---5-1---0-------|
|-0-----0-----0---|-0-----0---0-5-3-|

  E E E E E E E E   E E E E E E E E
|-----------------|-----------------|
|-----------------|-----------------|
|-----------------|-----------------| Play 3x
|-----------------|-----------------|
|---5-3---5-2---1-|---5-1---0-------|
|-0-----0-----0---|-0-----0---0-5-3-|

  E E E E E E E E   W
|-----------------|-----------------|
|-----------------|-----------------|
|-----------------|-----------------|
|-----------------|-----------------|
|---5-3---5-2---1-|-----------------|
|-0-----0-----0---|-----------------|


_____________________________________________________________________________

Lead Guitar


  W
|-----------------|
|-----------------|
|-----------------| Play 4x
|-----------------|
|-----------------|
|-----------------|

Main Theme

  W
|-----------------|
|-----------------|
|-----------------| Play 8x
|-----------------|
|-----------------|
|-----------------|

  E E E E E E E E   H.           E E
|-----------------|-----------------|
|---7-5---7-8---11|--------------8-7|
|---7-5---7-7---10|--------------7-7| Play 3x
|---0-0---0-0---8-|-----------------|
|---0-0---0-0---8-|-----------------|
|-----------------|-----------------|

  E E E E E E E E   H.           E E    H       H         H.              E E
|-----------------|-------------------|-----------------|---------------------|
|---7-5---7-8---11|-------------------|-----------------|---------------------|
|---7-5---7-7---10|--------------9b12-|-9-------7-------|/10--------------9b10|
|-----------------|-------------------|-----------------|---------------------|
|-----------------|-------------------|-----------------|---------------------|
|-----------------|-------------------|-----------------|---------------------|

  E E E E E E E E   H.          E E    H       H         H.              E E
|-----------------|------------------|-----------------|----------------------|
|-----------------|------------------|-----------------|----------------------|
|-9-------7-------|-------------9b10-|-9-------7-------|/10--------------9b10-|
|-----------------|-7----------------|-----------------|----------------------|
|-----------------|------------------|-----------------|----------------------|
|-----------------|------------------|-----------------|----------------------|

  H       H     E + W                 H        H        H       H
|-----------------|-----------------|-----------------|-----------------------|
|---------------10|-10--------------|-10b11r10-9b10r9-|-9b10r9----------------|
|-9-------7-------|-----------------|-----------------|---------10------------|
|-----------------|-----------------|-----------------|-----------------------|
|-----------------|-----------------|-----------------|-----------------------|
|-----------------|-----------------|-----------------|-----------------------|
                                                      |----------3------------|
  H.          E E   W                 H       H         H      H     H
|-----------------|-----------------|-----------------|---------------------|
|-----------------|-----------------|-----------------|--------6tr8--10tr11-|
|-9tr10-------7---|-7---------------|-6tr7----7tr9----|-9tr10---------------|
|-----------------|-7---------------|-----------------|---------------------|
|-----------------|-10b12-----------|-----------------|---------------------|
|-----------------|-----------------|-----------------|---------------------|

  Q       Q      Q     Q       Q      Q     Q     Q
|----------------------------|----------------------|
|-10tr12--8tr10--6tr8--8tr10-|----------------------|
|----------------------------|-9tr11--7tr9----------|
|----------------------------|--------------7tr8--6-|
|----------------------------|----------------------|
|----------------------------|----------------------|

Riff 2 (Bridge)

  W                 H       H         Q     Q     H       Q     Q     H
|-----------------|-----------------|-------------------|-------------------|
|-9---------------|-9-------9-------|-9-----------------|-------------------|
|-11b13-----------|-11b13---11b13---|-11b13-11b13-11b13-|-11b13-11b13-11b13-|
|-----------------|-----------------|-------------------|-------------------|
|-----------------|-----------------|-------------------|-------------------|
|-----------------|-----------------|-------------------|-------------------|

  Q      H.         Q      Q      E     Q.      E  E  E    E  E  E    E  E
|-----------------|---------------------------|------------5--5-------5--5-|
|-10-----10-------|---------------------------|-5----------5--5-------5--5-|
|-12b14--12b14----|-10b12--10b12--10b12-10b12-|-5-----7b9--------7b9-------|
|-----------------|---------------------------|----7-----------------------|
|-----------------|---------------------------|----------------------------|
|-----------------|---------------------------|----------------------------|

|----3----|
  Q      E  E  E  Q    S S  E    E.    S  S  S  Q        S  S   Q
|------------------------------|-------17----------------------------|
|------------------------------|----------20p17----------20p17-------|
|-7b9r7--5--7--5---------------|-19b21----------19b21----------19b21-|
|-----------------7----7/9-----|-------------------------------------|
|---------------------------10-|-------------------------------------|
|------------------------------|-------------------------------------|

  S  S  Q        S  S  Q        S S  S  S
|------------------------------------------|
|-20p17----------20p17-20b22------20p17h20-|
|-------19b21------------------------------|
|------------------------------------------|
|------------------------------------------|
|------------------------------------------|

  E.  S  T  T  Q.        S  S  S  S  S  S
|-17--17-------19b20r19--19h20p19----17-17-|--------17-------------------------|
|--------20p17--------------------17-------|-20b22-----20p17----17h20-19b20r19-|
|------------------------------------------|-----------------19-------19b20r19-|
|------------------------------------------|-----------------------------------|
|------------------------------------------|-----------------------------------|
|------------------------------------------|-----------------------------------|

  H   S  E.+ Q      W                   E E E E E E E E    H.         E    E
|-----------------|-------------------|------------------|-------------------|
|-19-\12----------|-------------------|---7-5---7-8---11-|-------------------|
|-19-\12----------|-------------------|---7-5---7-7---10-|-9----------9b10---|
|-----------------|-------------------|---0-0---0-0---8--|-6b7---------------|
|-----------------|-------------------|------------------|-------------------|
|-----------------|-------------------|------------------|-------------------|

Main Theme 2

  H       H          H.        E    E   H       H         H.          E    E
|-----------------|-------------------|-----------------|--------------------|
|-----------------|-------------------|-----------------|--------------------|
|-9-------7-------|-/10--------9b10---|-9-------7-------|-7-----------9b10---|
|-----------------|-------------------|-----------------|-6b7----------------|
|-----------------|-------------------|-----------------|--------------------|
|-----------------|-------------------|-----------------|--------------------|

  H       H          H.          E    E   H       Q.     E  + W
|-----------------|---------------------|-------------------|-----------------|
|-----------------|---------------------|----------------10-|-10--------------|
|-9-------7-------|-/10b12b13r10-9b11---|-9-------7---------|-----------------|
|-----------------|---------------------|-------------------|-----------------|
|-----------------|---------------------|-------------------|-----------------|
|-----------------|---------------------|-------------------|-----------------|

  H         H        H       H       H.         E  E   W
|------------------|---------------|-----------------|------------------------|
|-10b11r10--9b10r9-|-9b10r9--------|-----------------|------------------------|
|------------------|---------10----|-9tr10------7----|-7----------------------|
|------------------|---------------|-----------------|-6b7--------------------|
|------------------|---------------|-----------------|------------------------|
|------------------|---------------|-----------------|------------------------|

|------3------||-------3--------| |------3------||--------3--------|
  Q    Q    Q    Q    Q    Q       Q    Q     Q    Q    Q    Q
|--------------------------------|---------------------------------|
|--------------------------------|-9----10----9--------------------|
|------7----9----10---7----10----|-----------------10---7----10----|
|-7----7----7----7----7----7-----|-7----7-----7----7----7----7-----|
|--------------------------------|---------------------------------|
|--------------------------------|---------------------------------|

                               |---3---|
  E  S S Q      E  E    H       E  E  E  Q
|---------------------|---------------5--8b9b10-|
|-5--6p5--------------|------------6------------|
|--------7b9----7--6--|-7-------7---------------|
|---------------------|-------------------------|
|---------------------|-------------------------|
|---------------------|-------------------------|

Half Time Feel, Talkbox Solo

  W             H          E   Q.           E      E   E   E   E   Q     E
|-8b10--------|-8b10-------13-------------|---------------------------------|
|-------------|----------------12b12.5r12-|---------------------------------|
|-------------|---------------------------|-12b14--12--10------10--12----10-|
|-------------|---------------------------|----------------12---------------|
|-------------|---------------------------|---------------------------------|
|-------------|---------------------------|---------------------------------|

                                                                     |---3---|
  Q.     S  S  E         E   E   E          E   H.      E    H.      E  E  E
|-----------------------------------------|----------------|-----------------|
|----------------------------13-----------|----------------|-----------------|
|--------10h12-12b13r12--10------12b13r12-|-10--11---------|---------7--5----|
|-----------------------------------------|-------------12-|-10------------7-|
|-----------------------------------------|----------------|-----------------|
|-----------------------------------------|----------------|-----------------|

              |--------3--------| |---3---||-----3------||----3----|
  E  Q    S S Q      Q      Q      E  E  E  Q    Q    Q    E  E  E
|--------------------------------|---------------------------------|
|-7------------------------------|---------------------------------|
|----7----5----------------------|---------------------------------|
|-----------7-5b6----5b6----5----|-3-----3--5----3----3----3-------|
|--------------------------------|----5-----------------------5--3-|
|--------------------------------|---------------------------------|

  S S H        S S S E.   S S S Q   +S S E. S S  E   Q    E E  Q.    E
|-----------------------|------------------------8-|-8----8\x-----------|
|-----------------------|-----6-6----6-8----8/10---|--------------------|
|------------------5-5--|-5h7----------------------|-----------------14-|
|-3h5p3--------5h7------|--------------------------|--------------------|
|-----------------------|--------------------------|--------------------|
|-----------------------|--------------------------|--------------------|

  Q.      E  E  E  Q          Q        H            E  E
|-15------13p12h13—12b13----|-12b14----12b14--------12\x-|
|---------------------------|----------------------------|
|---------------------------|----------------------------|
|---------------------------|----------------------------|
|---------------------------|----------------------------|
|---------------------------|----------------------------|

                       |----3----|
  Q    Q.      E.   E.   Q     E  E  E   H
|------17------17---17-|-17----15p14h15--14b15--------|
|----------------------|------------------------------|
|----------------------|------------------------------|
|----------------------|------------------------------|
|----------------------|------------------------------|
|----------------------|------------------------------|

  Q        H               E   E    Q.      E   Q.      E
|-14b15----14b15r14---------------|-13------15--13------12-|
|--------------------------15-----|------------------------|
|------------------------------14-|------------------------|
|---------------------------------|------------------------|
|---------------------------------|------------------------|
|---------------------------------|------------------------|

      |---3---|
  E.   S  S  S  S  H            E   E   H.            E
|-13---12h13p12-12----------------|-10----------------10-|
|------------------15b17----------|-----10---------------|
|---------------------------------|----------------------|
|---------------------------------|----------------------|
|---------------------------------|----------------------|
|---------------------------------|----------------------|

                        |----3----| |-------3------|
  E.      S  Q           E   E   E   Q           E    H.             Q
|---------13-----------------10---------------------|-------------------------|
|-13b15------13b15r14----10------13-----------------|----------------10-------|
|------------------------------------12b14r12----10-|-12b14----------12b14----|
|---------------------------------------------------|-------------------------|
|---------------------------------------------------|-------------------------|
|---------------------------------------------------|-------------------------|

                                |--3--|--3--|
  Q           E   E   S  S  S  S S S S S S S
|--------------------------------------------|
|-10-----------------------------7-------7---|
|-12b13r12----11--12--11h12p11p9---9p7h9---9-|
|--------------------------------------------|
|--------------------------------------------|
|--------------------------------------------|

  S S S S S S S S S S T T S T T S T T S
|---------------------------------------|
|-7p5---5-------------0h3h7-------------|
|-----7---7p5h7p5-4-5-------------0h4h5-|
|---------------------------0h5h7-------|
|---------------------------------------|
|---------------------------------------|

  T T S T T S S S  S  S  S  S  S  S  S  S  S  S
|---------------------------------------13-------|
|---------------------13----------13h15----15p13-|
|-0h4h5-0h7h9p7-13h14----14p13h14----------------|
|------------------------------------------------|
|------------------------------------------------|
|------------------------------------------------|

  S  S  S  S  S  S  S  S  S  S  S  S  S  S  S  S
|----13-------13-------13-------13-------13-------|
|-15----13h15----13h15----13h15----13h15----13h15-|
|-------------------------------------------------|
|-------------------------------------------------|
|-------------------------------------------------|
|-------------------------------------------------|

  S  S  S  S  S  S  S  S  H              Q     S  S  S  S  S  S  S  Q        S
|-------13-------13-------13b15--------|-13----10-------10h13p10----15b17----15-|
|-13h15----13h15----13-----------------|----------13p10----------13-------------|
|----------------------14--------------|----------------------------------------|
|--------------------------------------|----------------------------------------|
|--------------------------------------|----------------------------------------|
|--------------------------------------|----------------------------------------|

  Q        Q        E         E   E   E    H            H
|-15b17----15b17----15b17r15------13--15-|-15b17--------15b17--------|
|-----------------------------15---------|---------------------------|
|----------------------------------------|---------------------------|
|----------------------------------------|---------------------------|
|----------------------------------------|---------------------------|
|----------------------------------------|---------------------------|

  Q        Q        E  Q     E       H            E  E  E  E
|-15b17----15b17----15\12----17b20-|-17b20-----------17p15p13-|
|----------------------------------|--------------------------|
|----------------------------------|--------------------------|
|----------------------------------|--------------------------|
|----------------------------------|--------------------------|
|----------------------------------|--------------------------|

                                               Riff 2 Returns
  E   S  S  S  S  S S  S  S  S  S  S  S  S  S    H.               S S E
|-----15p13---------13-------------------------|--------------------x---|
|-15--------15p13------15p13h15-13\10-13p10h13-|-16b20------------------|
|----------------------------------------------|------------------------|
|----------------------------------------------|------------------------|
|----------------------------------------------|------------------------|
|----------------------------------------------|------------------------|

  H.               E   E  + Q        Q.         Q.
|------------------13-----|----------13---------13---------|
|-16b18----------------16-|-16b18----16b18------16b18------|
|-------------------------|--------------------------------|
|-------------------------|--------------------------------|
|-------------------------|--------------------------------|
|-------------------------|--------------------------------|

  Q        H.               H.             E   E
|-13-------13-------------|-17-------------20--------|
|-16b18----16b18----------|-20b22--------------20b22-|
|-------------------------|--------------------------|
|-------------------------|--------------------------|
|-------------------------|--------------------------|
|-------------------------|--------------------------|

  H            Q.         E    E      E   E      E   E      E   E      E
|-------------------------20-|--------20---------20---------20---------20-|
|-20b22--------20b22---------|-20b22------20b22------20b22------20b22-----|
|----------------------------|--------------------------------------------|
|----------------------------|--------------------------------------------|
|----------------------------|--------------------------------------------|
|----------------------------|--------------------------------------------|

 |-------2-------|------3------|
  E      E  E      E   Q         E  E  E.   S    W
|--------20--------20--------------------------|-------------------|
|-20b22-----20b22------20b22r20----------------|-------------------|
|--------------------------------19p17h19------|-19----------------|
|-------------------------------------------17-|-------------------|
|----------------------------------------------|-------------------|
|----------------------------------------------|-------------------|

  H.            Q       W                      H.                  E   E
|---------------------|----------------------|---------------------------|
|---------------------|-12-------------------|---------------------------|
|-19-----------\14----|-13b14----------------|-14b15b16------------12----|
|---------------------|----------------------|---------------------------|
|---------------------|----------------------|---------------------------|
|---------------------|----------------------|---------------------------|

  Q           E   Q           E   Q          Q        Q           E   Q.
|------------------------------------------|-----------------------------------|
|-12b13r12----10--12b13r12----10--12b13----|--------------------------13b15----|
|-12b13r12----10--12b13r12----10--12b13----|-12b13----12b13r12----10-----------|
|------------------------------------------|-----------------------------------|
|------------------------------------------|-----------------------------------|
|------------------------------------------|-----------------------------------|

  E  E   E  E  E  E  E   E    E   E  E  E   H
|-10h13---------------------|------------------------|
|--------13—13p10h12p10-----|------------------------|
|------------------------12-|-10---------------------|
|---------------------------|-----12p11p10--8--------|
|---------------------------|------------------------|
|---------------------------|------------------------|

  E  E  E  E  E  E  E  E    E  E  E  E  E  E  E  E
|-------------------------|------------------------|
|----7--5-----7--8-----11-|-------------------8--7-| Play 3x
|----7--5-----7--7-----10-|-------------------7--7-|
|----0--0-----0--0-----8--|----0--0--0--0--0--0--0-|
|-------------------------|------------------------|
|-------------------------|------------------------|

  E  E  E  E  E  E  E  E    W
|-------------------------|------------------------|
|----7--5-----7--8-----11-|------------------------|
|----7--5-----7--7-----10-|------------------------|
|----0--0-----0--0-----8--|------------------------|
|-------------------------|------------------------|
|-------------------------|------------------------|
comments
We did not receive enough feedback on this tab! Please rate:
print report bad tab
1 2 3 4 5
I want to post or [tab]
guest
You may want to rate the tab now too:
select rating
Please do not post tabs as comments. Select "correction" instead!