Oops, an error
Loading. Please wait.

Aint Life Grand Tab

ver2
ver2

Whole song

Interactive

More versions @911Tabs.com
11,805 views 21 this week
1 commentread comment
1 2 3 4 5
excellent!
x 3
Autoscroll
+/-
esc
set tempo
stop
Hey! There's an official Ultimate Guitar app which is ideal
for learning songs when you're away from computer. Get the app
WARNING: You are trying to view
                                    content from Ultimate-Guitar.com
                                    in an unauthorized application,
                                    which is prohibited.

                                    Please use an official Ultimate
                                    Guitar Tabs application for iPhone,
                                    iPad or Android to access legitimate
                                    chords, guitar, bass, and drum tabs
                                    from Ultimate-Guitar.com database.

                                    Type "ultimate guitar tabs" in Apple
                                    App Store's or Android Market's
                                    search to find the application.
AIN'T LIFE GRAND
As recorded by Slash's Snakepit
(From the 2000 Album AIN'T LIFE GRAND)

Words and Music by Slash's Snakepit
Arranged by Slash's Snakepit
Transcribed by Attila Acs

Gtr I (D# G# C# F# A# D#) - 'Slash (clean)'
Gtr II (D# G# C# F# A# D#) - 'Ryan Roxie/Keri Kelli (clean)'
Gtr III (D# G# C# F# A# D#) - 'Slash (dirty)'
Gtr IV (D# G# C# F# A# D#) - 'Ryan Roxie/Keri Kelli (dirty)'

 Intro
  Q=100(8=s8)
 4/4
  Gtr I
|----------------|-----------------------------------------|
|----------------|-----------------------------------------|
|----------------|----------------------------5--------5---|
|----------------|---------1b1.5--------/5-----------------|
|----x-------1h2h|==3---------------3----------------------|
|----x-15\-3-----|-----------------------------------------|
|
| Gtr II
|----------------|---------8----------------------8--------|
|----------------|----11---------11--------11-------11-----|
|----------------|-------8------------8---------8--------8-|
|----------------|-10-------------------10-----------------|
|----------------|-----------------------------------------|
|----------------|-----------------------------------------|


|---------------------|
|---------------------|
|----5----------------|
|-4----3--1-----------|
|---------------1h2h==|
|-------------3-------|
|
|---------------------|
|-x--x-x--x-----------|
|-x-11-x-10\----------|
|---------------------|
|---------------------|
|---------------------|


                                                         ~~
|-----------------------------------------|------------------|
|-----------------------------------------|------------------|
|----------------------------5--------5---|----5---------8\--|
|---------1b1.5--------/5-----------------|-4----3--1\---8\--|
|--3---------------3----------------------|------------------|
|-----------------------------------------|------------------|
|
|                                                        ~~
|---------8----------------------8--------|------------------|
|----11---------11--------11-------11-----|-x--x-x--x--------|
|-------8------------8---------8--------8-|-x-11-x-10\---8\--|
|-10-------------------10-----------------|--------------8\--|
|-----------------------------------------|------------------|
|-----------------------------------------|------------------|


|-----------------------------------------|---------------------------|
|-----------------------------------------|---------------------------|
|----------------------------5--------5---|----5----------------------|
|---------1b1.5--------/5-----------------|-4----3--1-----------------|
|--3---------------3----------------------|-----------------1h=====2h=|
|-----------------------------------------|--------------3------------|
|
|---------8----------------------8--------|---------------------------|
|----11---------11--------11-------11-----|-x--x-x--x-----------------|
|-------8------------8---------8--------8-|-x-11-x-10\-----10b11r(10)-|
|-10-------------------10-----------------|-------------10------------|
|-----------------------------------------|---------------------------|
|-----------------------------------------|---------------------------|


|----------------------|---------------------|
|----------------------|---------------------|
|----------------5-----|---------------------|
|-----1b1.5---/5---4-x-|-3-x-1b1.5-----------|
|-3---------3----------|-----------3--3S5----|
|----------------------|---------------------|
|
|----------------------|---------------------|
|----------------------|---------------------|
|-8\-------------------|---------------------|
|----------------------|---------------------|
|----------------------|---------------------|
|----------------------|---------------------|


  Gtr III
|----------|------|
|----------|------|
|----------|-0----|
|-5--------|-0----|
|-5--------|-2----|
|-3--------|-3----|
|
| Gtr IV
|----------|------|
|----------|------|
|-4--------|-4----|
|-5--------|-5----|
|-5--------|-5----|
|-3--------|-3----|


 Interlude
|----------------|---------------------|
|----------------|---------------------|
|----------------|---------------------|
|----1--1--------|---------------------|
|-3--------------|-------1--1----------|
|----------1-2-3-|-(3)-3-------2--3--4-|
|
|----------------|---------------------|
|----------------|---------------------|
|----8--8-10-8-7-|-(7)---8--8p=7-----8-|
|----8--8----8-9-|-(9)-9-9--9-(9)-9-10-|
|----------------|---------------------|
|----------------|---------------------|


|-----------------------|----------------------|
|-----------------------|----------------------|
|-----------------------|----------------------|
|---------4---4S=3-1----|---------3---3-1------|
|-----------------------|------------------3-1-|
|--(4)-4--------------3-|--(3)-3---------------|
|
|-----------------------|----------------------|
|--------11--11-10-8----|----------------------|
|--(8)---11--11-10-8----|--------10--10-8------|
|-(10)------------------|--------10--10-8-10-8-|
|--------------------10-|-(10)-----------------|
|-----------------------|----------------------|


|-----------------|---------------------|
|-----------------|---------------------|
|-----------------|---------------------|
|-----1--1--------|---------------------|
|--3--------------|-------1--1----------|
|-----------1-2-3-|-(3)-3-------2--3--4-|
|
|-----------------|---------------------|
|-----------------|---------------------|
|-----8--8-10-8-7-|-(7)---8--8p=7-----8-|
|-10--8--8----8-9-|-(9)-9-9--9-(9)-9-10-|
|-----------------|---------------------|
|-----------------|---------------------|


|-----------------------|----------------------|
|-----------------------|----------------------|
|-----------------------|----------------------|
|---------4---4S=3-1----|---------3---3-1------|
|-----------------------|------------------3-1-|
|--(4)-4--------------3-|--(3)-3---------------|
|
|-----------------------|----------------------|
|--------11--11-10-8----|----------------------|
|--(8)---11--11-10-8----|--------10--10-8------|
|-(10)------------------|--------10--10-8-10-8-|
|--------------------10-|-(10)-----------------|
|-----------------------|----------------------|


 Verse
|----------------|-------------------|-----------------|----------------------|
|----------------|-------------------|-----------------|----------------------|
|----------------|-------------------|-----------------|----------------------|
|-5--6---6p=5----|-------------------|-8--10--10p=8----|--------------------5-|
|-3--3---3--3--5S|=6--8---8p=6-----6-|-6---6---6--6--7S|=8--10-8--9--8-6----3-|
|--------------3S|=4--4---4--4-6-8---|---------------5S|=6---6-6--------------|
|
|        >                >                    >
|----------------|-------------------|-----------------|----------------------|
|----------------|-------------------|--------11\------|----------------------|
|--------8\------|-------12\---------|--------12\------|---------11-10-8------|
|-------10\------|-------10\---------|-----------------|-----------------10---|
|----------------|-------------------|-----------------|----------------------|
|----------------|-------------------|-----------------|----------------------|


|-------------------|-------------------|-----------------|--------------------|
|-------------------|-------------------|-----------------|--------------------|
|-------------------|-------------------|-----------------|--------------------|
|--(5)--6---6p=5----|-------------------|-8--10--10p=8----|--------------------|
|--(3)--3---3--3--5S|=6--8---8p=6-----6-|-6---6---6--6--7S|=8--10-8--9--8-6-6--|
|-----------------3S|=4--4---4--4-6-8---|---------------5S|=6---6-6---------4--|
|
|           >                >                    >
|-------------------|-------------------|-----------------|--------------------|
|-------------------|-------------------|--------11\------|--------------------|
|-----------8\------|-------12\---------|--------12\------|---------11-10-8S1--|
|-(10)-----10\------|-------10\---------|-----------------|--------------------|
|-------------------|-------------------|-----------------|--------------------|
|-------------------|-------------------|-----------------|--------------------|


|--------------------|---------------------|
|--------------------|---------------------|
|--------------------|---------------------|
|--------------------|--8---10-----10p8----|
|-(6)--8---8p6-----6-|--6----6------6-6----|
|-(4)--4---4-4-6-8---|---------------------|
|
|--------------------|---------------------|
|------------4-6-4---|-(4)-----------------|
|-(1)-----/5---------|--------------3-5----|
|--------------------|-------1-/5--------3-|
|--------------------|---------------------|
|--------------------|---------------------|


                                                        ~~
|-------------------|------------------|--------------------|
|-------------------|------------------|--------------------|
|-------------------|------------------|--------------------|
|-10---10--10---10--|-12--12--12---12--|-12---12--12---12---|
|--8----8---8----8--|-10--10--10---10--|-10---10--10---10---|
|-------------------|------------------|--------------------|
|
|-----------5-------|----------7-------|-----------7--------|
|-------------4-----|------------6-----|-------------6------|
|----------------5--|---------------7--|----------------7---|
|-(3)---------------|--5---------------|-(5)----------------|
|-------------------|------------------|--------------------|
|-------------------|------------------|--------------------|


 Interlude (Sax Solo)
|----------------|---------------------|
|----------------|---------------------|
|----------------|---------------------|
|----1--1--------|---------------------|
|-3--------------|-------1--1----------|
|----------1-2-3-|-(3)-3-------2--3--4-|
|
|----------------|---------------------|
|----------------|---------------------|
|----8--8-10-8-7-|-(7)---8--8p=7-----8-|
|----8--8----8-9-|-(9)-9-9--9-(9)-9-10-|
|----------------|---------------------|
|----------------|---------------------|


|-----------------------|----------------------|
|-----------------------|----------------------|
|-----------------------|----------------------|
|---------4---4S=3-1----|---------3---3-1------|
|-----------------------|------------------3-1-|
|--(4)-4--------------3-|--(3)-3---------------|
|
|-----------------------|----------------------|
|--------11--11-10-8----|----------------------|
|--(8)---11--11-10-8----|--------10--10-8------|
|-(10)------------------|--------10--10-8-10-8-|
|--------------------10-|-(10)-----------------|
|-----------------------|----------------------|


|-----------------|---------------------|
|-----------------|---------------------|
|-----------------|---------------------|
|-----1--1--------|---------------------|
|--3--------------|-------1--1----------|
|-----------1-2-3-|-(3)-3-------2--3--4-|
|
|-----------------|---------------------|
|-----------------|---------------------|
|-----8--8-10-8-7-|-(7)---8--8p=7-----8-|
|-10--8--8----8-9-|-(9)-9-9--9-(9)-9-10-|
|-----------------|---------------------|
|-----------------|---------------------|


|-----------------------|----------------------|
|-----------------------|----------------------|
|-----------------------|----------------------|
|---------4---4S=3-1----|---------3---3-1------|
|-----------------------|------------------3-1-|
|--(4)-4--------------3-|--(3)-3---------------|
|
|-----------------------|----------------------|
|--------11--11-10-8----|----------------------|
|--(8)---11--11-10-8----|--------10--10-8------|
|-(10)------------------|--------10--10-8-10-8-|
|--------------------10-|-(10)-----------------|
|-----------------------|----------------------|


 Verse
|----------------|-------------------|-----------------|----------------------|
|----------------|-------------------|-----------------|----------------------|
|----------------|-------------------|-----------------|----------------------|
|-5--6---6p=5----|-------------------|-8--10--10p=8----|--------------------5-|
|-3--3---3--3--5S|=6--8---8p=6-----6-|-6---6---6--6--7S|=8--10-8--9--8-6----3-|
|--------------3S|=4--4---4--4-6-8---|---------------5S|=6---6-6--------------|
|
|        >                >                    >
|----------------|-------------------|-----------------|----------------------|
|----------------|-------------------|--------11\------|----------------------|
|--------8\------|-------12\---------|--------12\------|---------11-10-8------|
|-------10\------|-------10\---------|-----------------|-----------------10---|
|----------------|-------------------|-----------------|----------------------|
|----------------|-------------------|-----------------|----------------------|


|-------------------|-------------------|-----------------|--------------------|
|-------------------|-------------------|-----------------|--------------------|
|-------------------|-------------------|-----------------|--------------------|
|--(5)--6---6p=5----|-------------------|-8--10--10p=8----|--------------------|
|--(3)--3---3--3--5S|=6--8---8p=6-----6-|-6---6---6--6--7S|=8--10-8--9--8-6-6--|
|-----------------3S|=4--4---4--4-6-8---|---------------5S|=6---6-6---------4--|
|
|           >                >                    >
|-------------------|-------------------|-----------------|--------------------|
|-------------------|-------------------|--------11\------|--------------------|
|-----------8\------|-------12\---------|--------12\------|---------11-10-8S1--|
|-(10)-----10\------|-------10\---------|-----------------|--------------------|
|-------------------|-------------------|-----------------|--------------------|
|-------------------|-------------------|-----------------|--------------------|


|--------------------|---------------------|
|--------------------|---------------------|
|--------------------|---------------------|
|--------------------|--8---10-----10p8----|
|-(6)--8---8p6-----6-|--6----6------6-6----|
|-(4)--4---4-4-6-8---|---------------------|
|
|--------------------|---------------------|
|------------4-6-4---|-(4)-----------------|
|-(1)-----/5---------|--------------3-5----|
|--------------------|-------1-/5--------3-|
|--------------------|---------------------|
|--------------------|---------------------|


                                                        ~~
|-------------------|------------------|--------------------|
|-------------------|------------------|--------------------|
|-------------------|------------------|--------------------|
|-10---10--10---10--|-12--12--12---12--|-12---12--12---12---|
|--8----8---8----8--|-10--10--10---10--|-10---10--10---10---|
|-------------------|------------------|--------------------|
|
|-----------5-------|----------7-------|-----------7--------|
|-------------4-----|------------6-----|-------------6------|
|----------------5--|---------------7--|----------------7---|
|-(3)---------------|--5---------------|-(5)----------------|
|-------------------|------------------|--------------------|
|-------------------|------------------|--------------------|


   Chorus
||---------------|---------------|---------------|------------------||
||o--------------|---------------|---------------|-----------------o||
||---------------|---------------|---------------|------------------||
||-----5--6--7-8-|-(8)-----------|----7--8--9-10-|-(10)--8--7-------||
||o-6--3--4--5-6-|-(6)--5--6--7--|-8--5--6--7--8-|--(8)--6--5--8---o||
||--4------------|------3--4--5--|-6-------------|-------------6----||
|
||---------------|---------------|---------------|------------------||
||o--------------|---------------|---------------|-----------------o||
||---------------|---------------|---------------|------------------||
||---------------|---------------|---------------|------------------||
||o----3--4--5-6-|-(6)-----------|----5--6--7--8-|--(8)--6--5------o||
||--4------------|------3--4--5--|-6-------------|-------------6----||


|--------------|---------------|---------------|--------------------------|
|--------------|---------------|---------------|--------------------------|
|--------------|---------------|---------------|--------------------------|
|----5--6--7-8-|-(8)-----------|----7--8--9-10-|-(10)--10---10----10------|
|-6--3--4--5-6-|-(6)--5--6--7--|-8--5--6--7--8-|--(8)---8----8-----8------|
|-4------------|------3--4--5--|-6-------------|--------------------------|
|
|--------------|---------------|---------------|--------------------------|
|--------------|---------------|---------------|-------10-----------------|
|--------------|---------------|---------------|----------8---------------|
|--------------|---------------|---------------|---------------10----(10)-|
|----3--4--5-6-|-(6)-----------|----5--6--7--8-|--(8)---------------------|
|-4------------|------3--4--5--|-6-------------|--------------------------|


|-------------------------|-------------------------|
|-------------------------|-------------------------|
|-------------------------|-------------------------|
|-12--12----12----12------|-12--12----12----12------|
|-10--10----10----10------|-10--10----10----10------|
|-------------------------|-------------------------|
|
|-------------------------|-------------------------|
|-----12------------------|-----12------------------|
|--------10---------------|--------10---------------|
|--------------12----(12)-|--------------12----(12)-|
|-10----------------------|-10----------------------|
|-------------------------|-------------------------|


 Guitar Solo
          ~~
|---------------------|-----------------------------------|
|---------------------|-----------------------------------|
|-10b12==10-----------|-10r10p8----8h10-10b12-(10)--------|
|---------------------|---------10------------------------|
|---------------------|-----------------------------------|
|---------------------|-----------------------------------|
|
|---------------------|-----------------------------------|
|---------------------|-----------------------------------|
|---------------------|-----------------------------------|
|--5--------6--6p5----|-----------------------------------|
|--3--------3--3-3--5S|==6-------8--------------8p6-----6-|
|-------------------3S|==4-------4--------------4-4-6-8---|


|-------------------------------|----------------------------------|
|-------8----8------------------|-11b13-11----8-11---8-(8)\--------|
|-10b12---10----8------8--------|----------------------------------|
|-----------------10-----10p==8-|----------------------------------|
|-------------------------------|----------------------------------|
|-------------------------------|----------------------------------|
|
|-------------------------------|----------------------------------|
|-------------------------------|----------------------------------|
|-------------------------------|----------------------------------|
|--8------10------10p8----------|--------------------------------5-|
|--6-------6-------6-6------7S==|==8-------10-8----9--------8-6--3-|
|---------------------------5S==|==6--------6-6--------------------|


          ~~~~~~~~~~~~
|------------------------|-------------------------------------|
|-18b20==18------(18)----|-18r18p16----16h18-18b20-(18)--------|
|------------------------|----------17-------------------------|
|------------------------|-------------------------------------|
|------------------------|-------------------------------------|
|------------------------|-------------------------------------|
|
|------------------------|-------------------------------------|
|------------------------|-------------------------------------|
|------------------------|-------------------------------------|
|-(5)-------6--6p==5-----|-------------------------------------|
|-(3)-------3--3---3---5S|==6--------8---------------8p6-----6-|
|----------------------3S|==4--------4---------------4-4-6-8---|


|-------15----15---------------------|-18b20-18----15-18---15-(15)\--------|
|-18b20----18-----16------16---------|-------------------------------------|
|--------------------17------17p==15-|-------------------------------------|
|------------------------------------|-------------------------------------|
|------------------------------------|-------------------------------------|
|------------------------------------|-------------------------------------|
|
|------------------------------------|-------------------------------------|
|------------------------------------|-------------------------------------|
|------------------------------------|-------------------------------------|
|--8-------10--------10p8------------|-------------------------------------|
|--6--------6---------6-6-------7S===|==8-------10--8----9----------8-6--6-|
|-------------------------------5S===|==6--------6--6--------------------4-|


|-18b20-18b20==(18)----18r---------------|--------18---------------------------|
|--------------------------18pb20r==16---|-18b20=====18r16-18b20-18b20===(18)r-|
|----------------------------------------|-------------------------------------|
|----------------------------------------|-------------------------------------|
|----------------------------------------|-------------------------------------|
|----------------------------------------|-------------------------------------|
|
|----------------------------------------|-------------------------------------|
|----------------------------------------|-------------------------------------|
|----------------------------------------|-------------------------------------|
|----------------------------------------|--8--------10----10p====8------------|
|-(6)------------8---8p=6--------------6-|--6---------6-----6-----6------------|
|-(4)------------4---4--4---6-----8------|-------------------------------------|


|-------18-18-------18-------18-18-------18-|
|-18b20-------18b20----18b20-------18b20----|
|-------------------------------------------|
|-------------------------------------------|
|-------------------------------------------|
|-------------------------------------------|
|
|-------------------------------------------|
|-------------------------------------------|
|-------------------------------------------|
|-10----------10-------10----------10-------|
|--8-----------8--------8-----------8-------|
|-------------------------------------------|


|-----------------------------------------|---------------------------------|
|-18pb20r18-16-18p16-15-16p15-13-15p13-11-|-13p11-8-11p8--------------------|
|-----------------------------------------|--------------10-10b12r8-10b12r8-|
|-----------------------------------------|---------------------------------|
|-----------------------------------------|---------------------------------|
|-----------------------------------------|---------------------------------|
|
|                                                                    ~~~~~~
|-----------------------------------------|---------------------------------|
|-----------------------------------------|---------------------------------|
|-----------------------------------------|---------------------------------|
|-12-----------12-------12-------12-------|-12------12------12------12------|
|-10-----------10-------10-------10-------|-10------10------10------10------|
|-----------------------------------------|---------------------------------|


 Chorus
    ~~~
|------------------|---------------|---------------|----------------|
|-/13-----13\------|---------------|---------------|----------------|
|------------------|---------------|---------------|----------------|
|----------------8-|-(8)-----------|----7--8--9-10-|-(10)--8--7-----|
|----------------6-|-(6)--5--6--7--|-8--5--6--7--8-|--(8)--6--5--8--|
|------------------|------3--4--5--|-6-------------|-------------6--|
|
|------------------|---------------|---------------|----------------|
|------------------|---------------|---------------|----------------|
|------------------|---------------|---------------|----------------|
|------------------|---------------|---------------|----------------|
|------3---4---5-6-|-(6)-----------|----5--6--7--8-|--(8)--6--5-----|
|---4--------------|------3--4--5--|-6-------------|-------------6--|


||---------------|---------------|---------------|-----------------||-|
||o--------------|---------------|---------------|----------------o||-|
||---------------|---------------|---------------|-----------------||-|
||-----5--6--7-8-|-(8)-----------|----7--8--9-10-|-(10)--8--7------||-|
||o-6--3--4--5-6-|-(6)--5--6--7--|-8--5--6--7--8-|--(8)--6--5--8--o||-|
||--4------------|------3--4--5--|-6-------------|-------------6---||-|
|
||---------------|---------------|---------------|-----------------||-|
||o--------------|---------------|---------------|----------------o||-|
||---------------|---------------|---------------|-----------------||-|
||---------------|---------------|---------------|-----------------||-|
||o----3--4--5-6-|-(6)-----------|----5--6--7--8-|--(8)--6--5-----o||-|
||--4------------|------3--4--5--|-6-------------|-------------6---||-|


|--------------|---------------|---------------|--------------------------|
|--------------|---------------|---------------|--------------------------|
|--------------|---------------|---------------|--------------------------|
|----5--6--7-8-|-(8)-----------|----7--8--9-10-|-(10)--10---10----10------|
|-6--3--4--5-6-|-(6)--5--6--7--|-8--5--6--7--8-|--(8)---8----8-----8------|
|-4------------|------3--4--5--|-6-------------|--------------------------|
|
|--------------|---------------|---------------|--------------------------|
|--------------|---------------|---------------|-------10-----------------|
|--------------|---------------|---------------|----------8---------------|
|--------------|---------------|---------------|---------------10----(10)-|
|----3--4--5-6-|-(6)-----------|----5--6--7--8-|--(8)---------------------|
|-4------------|------3--4--5--|-6-------------|--------------------------|


|-------------------------|-------------------------|
|-------------------------|-------------------------|
|-------------------------|-------------------------|
|-12--12----12----12------|-12--12----12----12------|
|-10--10----10----10------|-10--10----10----10------|
|-------------------------|-------------------------|
|
|-------------------------|-------------------------|
|-----12------------------|-----12------------------|
|--------10---------------|--------10---------------|
|--------------12----(12)-|--------------12----(12)-|
|-10----------------------|-10----------------------|
|-------------------------|-------------------------|


 Interlude (long)
|----------------|---------------------|
|----------------|---------------------|
|----------------|---------------------|
|----1--1--------|---------------------|
|-3--------------|-------1--1----------|
|----------1-2-3-|-(3)-3-------2--3--4-|
|
|----------------|---------------------|
|----------------|---------------------|
|----8--8-10-8-7-|-(7)---8--8p=7-----8-|
|----8--8----8-9-|-(9)-9-9--9-(9)-9-10-|
|----------------|---------------------|
|----------------|---------------------|


|-----------------------|----------------------|
|-----------------------|----------------------|
|-----------------------|----------------------|
|---------4---4S=3-1----|---------3---3-1------|
|-----------------------|------------------3-1-|
|--(4)-4--------------3-|--(3)-3---------------|
|
|-----------------------|----------------------|
|--------11--11-10-8----|----------------------|
|--(8)---11--11-10-8----|--------10--10-8------|
|-(10)------------------|--------10--10-8-10-8-|
|--------------------10-|-(10)-----------------|
|-----------------------|----------------------|


|-----------------|---------------------|
|-----------------|---------------------|
|-----------------|---------------------|
|-----1--1--------|---------------------|
|--3--------------|-------1--1----------|
|-----------1-2-3-|-(3)-3-------2--3--4-|
|
|-----------------|---------------------|
|-----------------|---------------------|
|-----8--8-10-8-7-|-(7)---8--8p=7-----8-|
|-10--8--8----8-9-|-(9)-9-9--9-(9)-9-10-|
|-----------------|---------------------|
|-----------------|---------------------|


|-----------------------|----------------------|
|-----------------------|----------------------|
|-----------------------|----------------------|
|---------4---4S=3-1----|---------3---3-1------|
|-----------------------|------------------3-1-|
|--(4)-4--------------3-|--(3)-3---------------|
|
|-----------------------|----------------------|
|--------11--11-10-8----|----------------------|
|--(8)---11--11-10-8----|--------10--10-8------|
|-(10)------------------|--------10--10-8-10-8-|
|--------------------10-|-(10)-----------------|
|-----------------------|----------------------|


|-----------------|---------------------|
|-----------------|---------------------|
|-----------------|---------------------|
|-----1--1--------|---------------------|
|--3--------------|-------1--1----------|
|-----------1-2-3-|-(3)-3-------2--3--4-|
|
|-----------------|---------------------|
|-----------------|---------------------|
|-----8--8-10-8-7-|-(7)---8--8p=7-----8-|
|-10--8--8----8-9-|-(9)-9-9--9-(9)-9-10-|
|-----------------|---------------------|
|-----------------|---------------------|


|-----------------------|----------------------|
|-----------------------|----------------------|
|-----------------------|----------------------|
|---------4---4S=3-1----|---------3---3-1------|
|-----------------------|------------------3-1-|
|--(4)-4--------------3-|--(3)-3---------------|
|
|-----------------------|----------------------|
|--------11--11-10-8----|----------------------|
|--(8)---11--11-10-8----|--------10--10-8------|
|-(10)------------------|--------10--10-8-10-8-|
|--------------------10-|-(10)-----------------|
|-----------------------|----------------------|


|-----------------|---------------------|
|-----------------|---------------------|
|-----------------|---------------------|
|-----1--1--------|---------------------|
|--3--------------|-------1--1----------|
|-----------1-2-3-|-(3)-3-------2--3--4-|
|
|-----------------|---------------------|
|-----------------|---------------------|
|-----8--8-10-8-7-|-(7)---8--8p=7-----8-|
|-10--8--8----8-9-|-(9)-9-9--9-(9)-9-10-|
|-----------------|---------------------|
|-----------------|---------------------|


|-----------------------|----------------------|
|-----------------------|----------------------|
|-----------------------|----------------------|
|---------4---4S=3-1----|---------3---3-1------|
|-----------------------|------------------3-1-|
|--(4)-4--------------3-|--(3)-3---------------|
|
|-----------------------|----------------------|
|--------11--11-10-8----|----------------------|
|--(8)---11--11-10-8----|--------10--10-8------|
|-(10)------------------|--------10--10-8-10-8-|
|--------------------10-|-(10)-----------------|
|-----------------------|----------------------|


 Outro
 4/4
                                             >
                                             ~~~~~~~~~~~~~~~~~~~~
|-----------------------------------------|---------------------|
|-----------------------------------------|---------------------|
|-----------------------------------------|---------------------|
|-----------------------------------------|---------------------|
|--3--------------------------------------|-(3)-----------------|
|-----------------------------------------|---------------------|
|
| Gtr I
|-----------------------------------------|---------------------|
|-----------------------------------------|---------------------|
|----------------------------5--------5---|------5--------------|
|---------1b1.5--------/5-----------------|--4-----3--1---------|
|--3---------------3----------------------|-----------------1h2h|
|-----------------------------------------|---------------3-----|
|
| Gtr II
|---------8----------------------8--------|---------------------|
|----11---------11--------11-------11-----|--x---x-x--x---------|
|-------8------------8---------8--------8-|--x--11-x-10\--------|
|-10-------------------10-----------------|---------------------|
|-----------------------------------------|---------------------|
|-----------------------------------------|---------------------|


 ~~~~~~~~~~~~~~~~~~~~~~~~~~~~~~~~~~~~~~~~~~~~~~~~
|------------------------------------------|--------------------|
|------------------------------------------|--------------------|
|------------------------------------------|--------------------|
|------------------------------------------|--------------------|
|-(3)--------------------------------------|-(3)----------------|
|------------------------------------------|--------------------|
|
|                                                           ~~
|------------------------------------------|--------------------|
|------------------------------------------|--------------------|
|-----------------------------5--------5---|------5---------8\--|
|----------1b1.5--------/5-----------------|--4-----3--1\---8\--|
|--3----------------3----------------------|--------------------|
|------------------------------------------|--------------------|
|
|                                                           ~~
|----------8----------------------8--------|--------------------|
|-----11---------11--------11-------11-----|--x---x-x--x--------|
|--------8------------8---------8--------8-|--x--11-x-10\---8\--|
|-10--------------------10-----------------|----------------8\--|
|------------------------------------------|--------------------|
|------------------------------------------|--------------------|


  Gtr I
|-----------------------------------------|---------------------------|
|-----------------------------------------|---------------------------|
|----------------------------5--------5---|----5----------------------|
|---------1b1.5--------/5-----------------|-4----3--1-----------------|
|--3---------------3----------------------|-----------------1h=====2h=|
|-----------------------------------------|--------------3------------|
|
| Gtr II
|---------8----------------------8--------|---------------------------|
|----11---------11--------11-------11-----|-x--x-x--x-----------------|
|-------8------------8---------8--------8-|-x-11-x-10\-----10b11r(10)-|
|-10-------------------10-----------------|-------------10------------|
|-----------------------------------------|---------------------------|
|-----------------------------------------|---------------------------|


|-----------------------|---------------------|
|-----------------------|---------------------|
|-----------------------|---------------------|
|-----1b1.5---3b4.5--3--|-3b4r=1b1.5----------|
|-3---------3-----------|------------3-(3)----|
|-----------------------|---------------------|
|
|-----------------------|---------------------|
|-----------------------|---------------------|
|-8\--------------------|---------------------|
|-----------------------|---------------------|
|-----------------------|---------------------|
|-----------------------|---------------------|


|------------|------------|--------||
|------------|------------|--------||
|------------|------------|--------||
|------------|------------|--------||
|-(3)--------|-(3)--------|-(3)----||
|------------|------------|--------||
|
|  ~~~~~~~~~~~~~~~~~~~~~~~~~~~~~
|------------|------------|--------||
|------------|------------|--------||
|------------|------------|--------||
|--5---------|-(5)--------|-(5)----||
|--3---------|-(3)--------|-(3)----||
|------------|------------|--------||


Tablature Legend
----------------
 h   - hammer-on
 p   - pull-off
 b   - bend
 pb  - pre-bend
 r   - bend release (if no number after the r, then release immediately)
 /\  - slide into or out of (from/to "nowhere")
 s   - legato slide
 S   - shift slide
  - natural harmonic
[n]  - artificial harmonic
n(n) - tapped harmonic
 ~   - vibrato
 tr  - trill
 T   - tap
 TP  - trem. picking
 PM  - palm muting
\n/  - tremolo bar dip; n = amount to dip
 \n  - tremolo bar down
 n/  - tremolo bar up
/n\  - tremolo bar inverted dip
 =   - hold bend; also acts as connecting device for hammers/pulls
 <>  - volume swell (louder/softer)
 x   - on rhythm slash represents muted slash
 o   - on rhythm slash represents single note slash

Misc Legend
-----------
 |  - bar
||  - double bar
||o - repeat start
o|| - repeat end
*|  - double bar (ending)
 :  - bar (freetime)
 $  - Segno
 &  - Coda
Tempo markers -  = BPM(8/16=s8/s16), where s8 = swing 8ths, s16 = swing 16ths
comments
We did not receive enough feedback on this tab! Please rate:
print report bad tab
1 2 3 4 5
1 comment total.
0 reply
DJG_GNR wrote on March 14 2007, 01:24 pm

This Song is great, I just recently listened to the Album and Slash never dissapoints. This song which is also the name of the Album is defintily the top song and I say that anyone into Slash should learn this song and get this album!

Good Tab work!

DJG

I want to post or [tab]
guest
You may want to rate the tab now too:
select rating
Please do not post tabs as comments. Select "correction" instead!