Oops, an error
Loading. Please wait.

Been There Lately Tab

ver2
ver2

Whole song

Interactive

More versions @911Tabs.com
8,561 views 12 this week
no commentswrite comment
1 2 3 4 5
excellent!
x 4
Autoscroll
+/-
esc
set tempo
stop
Hey! There's an official Ultimate Guitar app which is ideal
for learning songs when you're away from computer. Get the app
WARNING: You are trying to view
                                    content from Ultimate-Guitar.com
                                    in an unauthorized application,
                                    which is prohibited.

                                    Please use an official Ultimate
                                    Guitar Tabs application for iPhone,
                                    iPad or Android to access legitimate
                                    chords, guitar, bass, and drum tabs
                                    from Ultimate-Guitar.com database.

                                    Type "ultimate guitar tabs" in Apple
                                    App Store's or Android Market's
                                    search to find the application.
"Been There Lately"
(As recorded by Slash's Snakepit on "Ain't Life Grand")
Transcribed by: Attila Acs (webmaster@slashssnakepit.de)
visit http://www.slashssnakepit.de for more Snakepit-tabs
Tune your guitar flat!!!

Intro: (00:00 - 00:21)
=================================================================================================
  Slash
||-----------------------||-----------------------------------||
||-----------------------||-----------------------------------||
||--5--------------------||--5-5-5-5-5-5-5-5-5-5-5-5-5-5-5-5--||
||--5--------------------||--5-5-5-5-5-5-5-5-5-5-5-5-5-5-5-5--||
||--3--------------------||--3-3-3-3-3-3-3-3-3-3-3-3-3-3-3-3--||
||-----------------------||-----------------------------------||
||                                                            ||
||Ryan Roxie/Keri Kelli                                       ||
||                                                            ||
||-----------------------||-----------------------------------||
||--7---7-------7-----7--||------7-----------7----------------||
||--5-----5-------5------||----------5--------------5---------||
||--7-------7-------7----||--------------7------7-------7-----||
||--5--------------------||--5--------------------------------||
||-----------------------||-----------------------------------||

Main riff

  Slash
||--------------------------------------||------------------------------------------------||
||--------------------------------------||------------------------------------------------||
||--------------------------X-X---------||------------------------------------------------||
||----X-X-X-----5------X-X--3-X-3-h-5---||------------------------3\sl-2--------0------5--||
||----X-X-X---X--------X-X--------------||----------------------5--------3/sl-5-----------||
||--3-X-X-X-3-X---3\sl-X-X--------------||--3-3\sl--sl/15\sl--3-------------------sl/6----||
||                                                                                        ||
||Ryan Roxie/Keri Kelli (w/ wah)                                                          ||
||--------------------------------------||------------------------------------------------||
||--------------------------------------||------------------------------------------------||
||--------------------------------------||------------------------------------------------||
||--------------5-----------3-X-3-h-5---||---------------3\sl-2--------------3-h-5--------||
||----X-X-X------------X-X--------------||-----------5--------------3-h-5-----------------||
||--3-X-X-X-3-----3----X-X--------------||--3----3----------------------------------------||

  Slash
||--------------------------------------||------------------------------------------------||
||--------------------------------------||------------------------------------------------||
||--------------------------X-X---------||------------------------------------------------||
||----X-X-X-----5------X-X--3-X-3-h-5---||------------------------3\sl-2--------0------5--||
||----X-X-X---X--------X-X--------------||----------------------5--------3/sl-5-----------||
||--3-X-X-X-3-X---3\sl-X-X--------------||--3-3\sl--sl/15\sl--3-------------------sl/6----||
||                                                                                        ||
||Ryan Roxie/Keri Kelli (w/ wah)                                                          ||
||--------------------------------------||------------------------------------------------||
||--------------------------------------||------------------------------------------------||
||--------------------------------------||------------------------------------------------||
||--------------5-----------3-X-3-h-5---||---------------3\sl-2------------------5--------||
||----X-X-X------------X-X--------------||-----------5--------------3-h-5----3------------||
||--3-X-X-X-3-----3----X-X--------------||--3----3----------------------------------------||

=================================================================================================
=================================================================================================
Verse: (00:21 - 00:53)
=================================================================================================

  Slash
  (repeat 2x)
||-------------------------------------------||----------------------------------------||
||-------------------------------------------||----------------------------------------||
||-------------------------------X-X---------||-----------------------X-X--------------||
||----X-X-X-X---5--------X-X-----3-X-3-h-5---||---------------5-------X-X--3\sl-2------||
||----X-X-X-X------------X-X-----------------||----------X-X-----------------------3---||
||--3-X-X-X-X-----3\sl---X-X-----------------||--3-3\sl--X-X-----3\sl------------------||
||                                                                                     ||
||Ryan Roxie/Keri Kelli                                                                ||
||(repeat 2x)                                                                          ||
||-------------------------------------------||----------------------------------------||
||-------------------------------------------||----------------------------------------||
||----X-X-X-X-X-X---X-X-X-X-X-X-X------------||--X-X-X-X-X-X-X-X---X-X-X---------------||
||----X-X-X-X-X-X---X-X-X-X-X-X-X------------||--X-X-X-X-X-X-X-X---X-X-X---3\sl-2------||
||----X-X-X-X-X-X---X-X-X-X-X-X-X------------||--X-X-X-X-X-X-X-X---X-X-X-----------3---||
||--3-X-X-X-X-X-X---X-X-X-X-X-X-X------------||--X-X-X-X-X-X-X-X---X-X-X---------------||
Have seen them raise an eye, I'm coming home;               Seedy and crawlin'
...seven years or more;        Now you know,                  where I'm goin'...

  Slash & Ryan Roxie/Keri Kelli
||---------------------------------||------------------------------------------||
||---------------------------------||------------------------------------------||
||-5--5--X--5--X--5--5----3---3----||---5---5---X---5---X---5---5----3---3-----||
||-5--5--X--5--X--5--5----3---3----||---5---5---X---5---X---5---5----3---3-----||
||-3--3--X--3--X--3--3----1---1----||---3---3---X---3---X---3---3----1---1-----||
||---------------------------------||------------------------------------------||
A beautiful shade of blue 'n pale; A color you bought at a junkie's yard sale

  Slash
||----------------------------------------------||-------------------------------------||
||---------------------------10-^1/4--10-^1/4---||-------------------------------------||
||--12--12--12--X--12--12----10-^1/4--10-^1/4---||--12--12--12--X--12--12----12--12----||
||--12--12--12--X--12--12-----------------------||--12--12--12--X--12--12----12--12----||
||--10--10--10--X--10--10-----------------------||--10--10--10--X--10--10----10--10----||
||----------------------------------------------||-------------------------------------||
||                                                                                     ||
||Ryan Roxie/Keri Kelli                                                                ||
||----------------------------------------------||-------------------------------------||
||-----sl/12-----12------12---10----10----------||--12-----12--------------------------||
||-----sl/12---------12-------10----10----------||--12-----------12--------------------||
||-----sl/12------------------10----10----------||--12-----------------12--------------||
||----------*let ring*--------------------------||---------*let ring*------------------||
||----------------------------------------------||-------------------------------------||
                  Stop your cryin',                            Stop your cryin'

  Slash
||--------------------------------------||-------------------------------------------||
||---------------_1/4_------------------||-------------------------------------------||
||--------------/-----\-----------------||--5----5----5----5---5--X------------------||
||--------2-4--4---4---rb--4-4-2-X------||--5----5----5----5---5--X---2----3----4----||
||----3-4--------------------------3-4--||--3----3----3----3---3--X---2----3----4----||
||--5-----------------------------------||----------------------------0----1----2----||
||                                                                                   ||
||Ryan Roxie/Keri Kelli                                                              ||
||--------------------------------------||-------------------------------------------||
||---------------_1/4_------------------||-------------------------------------------||
||--------------/-----\-----------------||--5----5----5----5---5--X---5--------------||
||--------2-4--4---4---rb--4-4-2-X---4--||--5----5----5----5---5--X---5--------------||
||----3-4-------------------------------||--3----3----3----3---3--X---3--------------||
||--5-----------------------------------||-------------------------------------------||
                  Well I'm Lazy now...    the summer crazy farm is all I own with...

=================================================================================================
=================================================================================================
Pre-Chorus: (00:53 - 01:05)
=================================================================================================

  Slash & Ryan Roxie/Keri Kelli
  (repeat 2x)
||------------------------------------------------------||
||------------------------------------------------------||
||-----8--8--8--8---5--5^1/4-p-3--5--3--5^1/4-p-3--5--3-||
||--5--8--8--8--8---5--5^1/4-p-3--5--3--5^1/4-p-3--5--3-||
||--5--6--6--6--6---3--3----------------3---------------||
||--3---------------------------------------------------||
  My Motor, my thrills, I needed my space...
...My Prison, my drugs, let's go to my place

=================================================================================================
=================================================================================================
Chorus: (01:05 - 01:18)
=================================================================================================

  Slash & Ryan Roxie/Keri Kelli
||---------------------------------------||---------------------------------------||
||---------------------------------------||---------------------------------------||
||------------------5--5^1/4-p-3--5--3---||------------------5--5^1/4-p-3--5--3---||
||--5--5--X--5------5--5^1/4-p-3--5--3---||--5--5--X--5------5--5^1/4-p-3--5--3---||
||--5--5--X--5------3--3-----------------||--5--5--X--5------3--3-----------------||
||--3--3--X--3---------------------------||--3--3--X--3---------------------------||
        Ain't been there lately;                 Ain't been there lately 

  Slash
||---------------------------------------||---------------------------------------||
||---------------------------------------||---------------------------------------||
||--8--8--8--8------3--3---3--3----------||--7-7-7--7-7-7--7-7-7--7-7-7--7--7-----||
||--8--8--8--8------3--3---3--3----------||--7-7-7--7-7-7--7-7-7--7-7-7--7--7-----||
||--6--6--6--6------1--1---1--1----------||--5-5-5--5-5-5--5-5-5--5-5-5--5--5-----||
||---------------------------------------||---------------------------------------||

  Ryan Roxie/Keri Kelli
||---------------------------------------||---------------------------------------||
||--8---------------3--------------------||---------------------------------------||
||--8---------------3--------------------||--sl/7--7-----------7------------------||
||--8---------------3--------------------||--sl/7-------7----------7--------------||
||--6---------------1--------------------||---------------------------------------||
||---------------------------------------||---------------------------------X\sl--||
          Ain't been there lately - there's no room              No, no...

=================================================================================================
=================================================================================================
Interlude: (01:18 - 01:31)
=================================================================================================

  Slash
||--------------------------------------||------------------------------------------------||
||--------------------------------------||------------------------------------------------||
||--------------------------X-X---------||------------------------------------------------||
||----X-X-X-----5------X-X--3-X-3-h-5---||------------------------3\sl-2--------0------5--||
||----X-X-X---X--------X-X--------------||----------------------5--------3/sl-5-----------||
||--3-X-X-X-3-X---3\sl-X-X--------------||--3-3\sl--sl/15\sl--3-------------------sl/6----||
||                                                                                        ||
||Ryan Roxie/Keri Kelli (w/ wah)                                                          ||
||--------------------------------------||------------------------------------------------||
||--------------------------------------||------------------------------------------------||
||--------------------------------------||------------------------------------------------||
||--------------5-----------3-X-3-h-5---||---------------3\sl-2-----------3-h-5-----------||
||----X-X-X------------X-X--------------||-----------5------------3-h-5-------------------||
||--3-X-X-X-3-----3----X-X--------------||--3----3----------------------------------------||

  Slash
||--------------------------------------||-------------------------------------_slow_bend-||
||--------------------------------------||------------------------------------/_slow_bend-||
||--------------------------X-X---------||-----------------------------------5/-----------||
||----X-X-X-----5------X-X--3-X-3-h-5---||------------------------3\sl-2-----5------------||
||----X-X-X---X--------X-X--------------||----------------------5-------------------------||
||--3-X-X-X-3-X---3\sl-X-X--------------||--3-3\sl--sl/15\sl--3---------------------------||
||                                                                                        ||
||Ryan Roxie/Keri Kelli (w/ wah)                                                          ||
||--------------------------------------||--------------------------------_slow_bend------||
||--------------------------------------||-------------------------------/----------------||
||--------------------------------------||------------------------------5-----------------||
||--------------5-----------3-X-3-h-5---||------------------3\sl-2------------------------||
||----X-X-X------------X-X--------------||------------5-----------------------------------||
||--3-X-X-X-3-----3----X-X--------------||--3----3----------------------------------------||

=================================================================================================
=================================================================================================
Verse: (01:31 - 02:03)
=================================================================================================

  Slash
  (repeat 2x)
||-------------------------------------------||----------------------------------------||
||-------------------------------------------||----------------------------------------||
||-------------------------------X-X---------||-----------------------X-X--------------||
||----X-X-X-X---5--------X-X-----3-X-3-h-5---||---------------5-------X-X--3\sl-2------||
||----X-X-X-X------------X-X-----------------||----------X-X-----------------------3---||
||--3-X-X-X-X-----3\sl---X-X-----------------||--3-3\sl--X-X-----3\sl------------------||
||                                                                                     ||
||Ryan Roxie/Keri Kelli                                                                ||
||(repeat 2x)                                                                          ||
||-------------------------------------------||----------------------------------------||
||-------------------------------------------||----------------------------------------||
||----X-X-X-X-X-X---X-X-X-X-X-X-X------------||--X-X-X-X-X-X-X-X---X-X-X---------------||
||----X-X-X-X-X-X---X-X-X-X-X-X-X------------||--X-X-X-X-X-X-X-X---X-X-X---3\sl-2------||
||----X-X-X-X-X-X---X-X-X-X-X-X-X------------||--X-X-X-X-X-X-X-X---X-X-X-----------3---||
||--3-X-X-X-X-X-X---X-X-X-X-X-X-X------------||--X-X-X-X-X-X-X-X---X-X-X---------------||
Well I sacrificed all the people that were killin' me and since gone away...
..Three of them murdered, two livin'; Now even god's gone, not much left to say

  Slash & Ryan Roxie/Keri Kelli
||---------------------------------||------------------------------------------||
||---------------------------------||------------------------------------------||
||-5--5--X--5--X--5--5----3---3----||---5---5---X---5---X---5---5----3---3-----||
||-5--5--X--5--X--5--5----3---3----||---5---5---X---5---X---5---5----3---3-----||
||-3--3--X--3--X--3--3----1---1----||---3---3---X---3---X---3---3----1---1-----||
||---------------------------------||------------------------------------------||
  If there's a day you wanna come by; Everybody knows i'll just be sittin' here 

  Slash
||----------------------------------------------||-------------------------------------||
||---------------------------10-^1/4--10-^1/4---||-------------------------------------||
||--12--12--12--X--12--12----10-^1/4--10-^1/4---||--12--12--12--X--12--12----12--12----||
||--12--12--12--X--12--12-----------------------||--12--12--12--X--12--12----12--12----||
||--10--10--10--X--10--10-----------------------||--10--10--10--X--10--10----10--10----||
||----------------------------------------------||-------------------------------------||
||                                                                                     ||
||Ryan Roxie/Keri Kelli                                                                ||
||----------------------------------------------||-------------------------------------||
||-----sl/12-----12------12---10----10----------||--12-----12--------------------------||
||-----sl/12---------12-------10----10----------||--12-----------12--------------------||
||-----sl/12------------------10----10----------||--12-----------------12--------------||
||----------*let ring*--------------------------||---------*let ring*------------------||
||----------------------------------------------||-------------------------------------||
                  Drop on by now,                        let's get high now...

  Slash
||--------------------------------------||-------------------------------------------||
||---------------_1/4_------------------||-------------------------------------------||
||--------------/-----\-----------------||--5----5----5----5---5--X------------------||
||--------2-4--4---4---rb--4-4-2-X------||--5----5----5----5---5--X---2----3----4----||
||----3-4--------------------------3-4--||--3----3----3----3---3--X---2----3----4----||
||--5-----------------------------------||----------------------------0----1----2----||
||                                                                                   ||
||Ryan Roxie/Keri Kelli                                                              ||
||--------------------------------------||-------------------------------------------||
||---------------_1/4_------------------||-------------------------------------------||
||--------------/-----\-----------------||--5----5----5----5---5--X---5--------------||
||--------2-4--4---4---rb--4-4-2-X---4--||--5----5----5----5---5--X---5--------------||
||----3-4-------------------------------||--3----3----3----3---3--X---3--------------||
||--5-----------------------------------||-------------------------------------------||
            The reverend reminded me        your redemption can be paid with... 

=================================================================================================
=================================================================================================
Pre-Chorus: (02:03 - 02:16)
=================================================================================================

  Slash & Ryan Roxie/Keri Kelli
  (repeat 2x)
||------------------------------------------------------||
||------------------------------------------------------||
||-----8--8--8--8---5--5^1/4-p-3--5--3--5^1/4-p-3--5--3-||
||--5--8--8--8--8---5--5^1/4-p-3--5--3--5^1/4-p-3--5--3-||
||--5--6--6--6--6---3--3----------------3---------------||
||--3---------------------------------------------------||
  My Motor, my thrills, I needed my space...
...My Prison, my drugs, let's go to my place

=================================================================================================
=================================================================================================
Chorus: (02:16 - 02:29)
=================================================================================================

  Slash & Ryan Roxie/Keri Kelli
||---------------------------------------||---------------------------------------||
||---------------------------------------||---------------------------------------||
||------------------5--5^1/4-p-3--5--3---||------------------5--5^1/4-p-3--5--3---||
||--5--5--X--5------5--5^1/4-p-3--5--3---||--5--5--X--5------5--5^1/4-p-3--5--3---||
||--5--5--X--5------3--3-----------------||--5--5--X--5------3--3-----------------||
||--3--3--X--3---------------------------||--3--3--X--3---------------------------||
        Ain't been there lately;                 Ain't been there lately 

  Slash
||---------------------------------------||---------------------------------------||
||---------------------------------------||---------------------------------------||
||--8--8--8--8------3--3---3--3----------||--7-7-7--7-7-7--7-7-7--7-7-7--7--7-----||
||--8--8--8--8------3--3---3--3----------||--7-7-7--7-7-7--7-7-7--7-7-7--7--7-----||
||--6--6--6--6------1--1---1--1----------||--5-5-5--5-5-5--5-5-5--5-5-5--5--5-----||
||---------------------------------------||---------------------------------------||

  Ryan Roxie/Keri Kelli
||---------------------------------------||---------------------------------------||
||--8---------------3--------------------||---------------------------------------||
||--8---------------3--------------------||--sl/7--7-----------7------------------||
||--8---------------3--------------------||--sl/7-------7----------7--------------||
||--6---------------1--------------------||---------------------------------------||
||---------------------------------------||---------------------------------X\sl--||
          Ain't been there lately - there's no room              No, no...

=================================================================================================
=================================================================================================
Solo: (02:29 - 03:07)
=================================================================================================

Solo not tabbed yet... 
If anyone is able to transcribe it please email me at webmaster@slashssnakepit.de

  Ryan Roxie/Keri Kelli
||-------------------------------------------||----------------------------------------||
||-------------------------------------------||----------------------------------------||
||-------------------------------------------||----------------------------------------||
||--X--X-------------------------------------||----------------------------------------||
||--X--X--5\sl(slow)-------------------------||----------------------------------------||
||--X--X--3\sl(slow)-------------------------||----------------------------------------||

  Ryan Roxie/Keri Kelli
||---------------------------------||------------------------------------------||
||---------------------------------||------------------------------------------||
||-5--5--X--5--X--5--5----3---3----||---5---5---X---5---X---5---5----3---3-----||
||-5--5--X--5--X--5--5----3---3----||---5---5---X---5---X---5---5----3---3-----||
||-3--3--X--3--X--3--3----1---1----||---3---3---X---3---X---3---3----1---1-----||
||---------------------------------||------------------------------------------||

  Ryan Roxie/Keri Kelli
||----------------------------------------------||-------------------------------------||
||---------------------------10-^1/4--10-^1/4---||-------------------------------------||
||--12--12--12--X--12--12----10-^1/4--10-^1/4---||--12--12--12--X--12--12----12--12----||
||--12--12--12--X--12--12-----------------------||--12--12--12--X--12--12----12--12----||
||--10--10--10--X--10--10-----------------------||--10--10--10--X--10--10----10--10----||
||----------------------------------------------||-------------------------------------||

  Ryan Roxie/Keri Kelli
||--------------------------------------||-------------------------------------------||
||---------------_1/4_------------------||-------------------------------------------||
||--------------/-----\-----------------||--5----5----5----5---5--X---5--------------||
||--------2-4--4---4---rb--4-4-2-X---4--||--5----5----5----5---5--X---5--------------||
||----3-4-------------------------------||--3----3----3----3---3--X---3--------------||
||--5-----------------------------------||-------------------------------------------||

  Slash
||--------------------------------------------------------------------------||
||--18^full-16----16---18--------------------------------15~~-15~-15~-15~---||
||-------------17-----------17^full-15-----15--17-15------------------------||
||--------------------------------------17------------17--------------------||
||----------------------------------------------------------------------\sl-||
||--------------------------------------------------------------------------||
||Ryan Roxie/Keri Kelli                                                     ||
||--------------------------------------------------------------------------||
||--------------------------------------------------------------------------||
||--10^full--8------8--10------------------------------------11-------11----||
||--------------10----------10^full--8------8--10--8------------10-------10-||
||--------------------------------------10------------10--12-------12-------||
||--------------------------------------------------------*    let ring   *-||

=================================================================================================
=================================================================================================
Interlude: (03:07 - 03:20)
=================================================================================================

  Slash
||--------------------------------------||------------------------------------------------||
||--------------------------------------||------------------------------------------------||
||--------------------------X-X---------||------------------------------------------------||
||----X-X-X-----5------X-X--3-X-3-h-5---||------------------------3\sl-2--------0------5--||
||----X-X-X---X--------X-X--------------||----------------------5--------3/sl-5-----------||
||--3-X-X-X-3-X---3\sl-X-X--------------||--3-3\sl--sl/15\sl--3-------------------sl/6----||
||                                                                                        ||
||Ryan Roxie/Keri Kelli (w/ wah)                                                          ||
||--------------------------------------||------------------------------------------------||
||--------------------------------------||------------------------------------------------||
||--------------------------------------||------------------------------------------------||
||--------------5-----------3-X-3-h-5---||---------------3\sl-2-----------3-h-5-----------||
||----X-X-X------------X-X--------------||-----------5------------3-h-5-------------------||
||--3-X-X-X-3-----3----X-X--------------||--3----3----------------------------------------||

  Slash
||--------------------------------------||-------------------------------------_slow_bend-||
||--------------------------------------||------------------------------------/_slow_bend-||
||--------------------------X-X---------||-----------------------------------5/-----------||
||----X-X-X-----5------X-X--3-X-3-h-5---||------------------------3\sl-2-----5------------||
||----X-X-X---X--------X-X--------------||----------------------5-------------------------||
||--3-X-X-X-3-X---3\sl-X-X--------------||--3-3\sl--sl/15\sl--3---------------------------||
||                                                                                        ||
||Ryan Roxie/Keri Kelli (w/ wah)                                                          ||
||--------------------------------------||--------------------------------_slow_bend------||
||--------------------------------------||-------------------------------/----------------||
||--------------------------------------||------------------------------5-----------------||
||--------------5-----------3-X-3-h-5---||------------------3\sl-2------------------------||
||----X-X-X------------X-X--------------||------------5-----------------------------------||
||--3-X-X-X-3-----3----X-X--------------||--3----3----------------------------------------||

=================================================================================================
=================================================================================================
Pre-Chorus: (03:20 - 03:45)
=================================================================================================

  Slash & Ryan Roxie/Keri Kelli
  (repeat 2x)
||------------------------------------------------------||
||------------------------------------------------------||
||-----8--8--8--8---5--5^1/4-p-3--5--3--5^1/4-p-3--5--3-||
||--5--8--8--8--8---5--5^1/4-p-3--5--3--5^1/4-p-3--5--3-||
||--5--6--6--6--6---3--3----------------3---------------||
||--3---------------------------------------------------||
  My Motor, my thrills, I needed my space...
...My Prison, my drugs, let's go to my place

Slash & Ryan Roxie/Keri Kelli
  (repeat 2x)
||------------------------------------------------------||
||------------------------------------------------------||
||-----8--8--8--8---5--5^1/4-p-3--5--3--5^1/4-p-3--5--3-||
||--5--8--8--8--8---5--5^1/4-p-3--5--3--5^1/4-p-3--5--3-||
||--5--6--6--6--6---3--3----------------3---------------||
||--3---------------------------------------------------||
  My Motor, my thrills, I needed my space...
...My Prison, my drugs, let's go to my place

=================================================================================================
=================================================================================================
Chorus: (03:45 - 03:58)
=================================================================================================

  Slash & Ryan Roxie/Keri Kelli
||---------------------------------------||---------------------------------------||
||---------------------------------------||---------------------------------------||
||------------------5--5^1/4-p-3--5--3---||------------------5--5^1/4-p-3--5--3---||
||--5--5--X--5------5--5^1/4-p-3--5--3---||--5--5--X--5------5--5^1/4-p-3--5--3---||
||--5--5--X--5------3--3-----------------||--5--5--X--5------3--3-----------------||
||--3--3--X--3---------------------------||--3--3--X--3---------------------------||
        Ain't been there lately;                 Ain't been there lately 

Slash & Ryan Roxie/Keri Kelli
||---------------------------------------||---------------------------------------||
||---------------------------------------||---------------------------------------||
||------------------5--5^1/4-p-3--5--3---||------------------5--5^1/4-p-3--5--3---||
||--5--5--X--5------5--5^1/4-p-3--5--3---||--5--5--X--5------5--5^1/4-p-3--5--3---||
||--5--5--X--5------3--3-----------------||--5--5--X--5------3--3-----------------||
||--3--3--X--3---------------------------||--3--3--X--3---------------------------||
        Ain't been there lately;                 Ain't been there lately

=================================================================================================
=================================================================================================
Outro: (03:58 - 04:27)
=================================================================================================

  Slash ___        ___        ___
||-----/-15-------/-15-------/-15----------------||--/-15-------/-15-------/-15----------------||
||---18-----15--18-----15--18-----17----------15-||18-----15--18-----15--18-----17----------15-||
||--------------------------------17^-p-15-17-15-||-----------------------------17^-p-15-17-15-||
||-----------------------------------------------||--------------------------------------------||
||-----------------------------------------------||--------------------------------------------||
||-----------------------------------------------||--------------------------------------------||
||                                                                                             ||
||Ryan Roxie/Keri Kelli                                                                        ||
||----------------------------------------------||---------------------------------------------||
||----------------------------------------------||---------------------------------------------||
||---------------------5---5^1/4--p-3--5--3-----||---------------------5---5^1/4--p-3--5--3----||
||--5---5---X---5------5---5^1/4--p-3--5--3-----||--5---5---X---5------5---5^1/4--p-3--5--3----||
||--5---5---X---5------3---3--------------------||--5---5---X---5------3---3-------------------||
||--3---3---X---3-------------------------------||--3---3---X---3------------------------------||
        Ain't been there lately;                            Ain't been there lately 

        __  _         _                                 _________hold________________
  Slash/   / \       /                                 /
||---18--18----15--20---18----20----18---20--18--||--20----20---20-----20-----20--20-----------||
||-----------------------------------------------||--------------------------------------------||
||-----------------------------------------------||--------------------------------------------||
||-----------------------------------------------||--------------------------------------------||
||-----------------------------------------------||--------------------------------------------||
||-----------------------------------------------||--------------------------------------------||
||                                                                                             ||
||Ryan Roxie/Keri Kelli                                                                        ||
||-----------------------------------------------||--------------------------------------------||
||-----------------------------------------------||--------------------------------------------||
||----------------------5---5^1/4-p-3--5--3------||---sl/7----7-----------7--------------------||
||--5---5---X---5-------5---5^1/4-p-3--5--3------||---sl/7-------7------------7----------------||
||--5---5---X---5-------3---3--------------------||--------------------------------------------||
||--3---3---X---3--------------------------------||--------------------------------------------||
        Ain't been there lately;                 Ain't been there lately

        __    ___   ___   ___
  Slash/     /     /     /              ___             ___
||---22----20----19----17-----15-------/---------||----/---------------------------------------||
||-------------------------------15--18-----15---||--18------[fig.1]---------------------------||
||-----------------------------------------------||--------------------------------------------||
||-----------------------------------------------||--------------------------------------------||
||-----------------------------------------------||--------------------------------------------||
||-----------------------------------------------||--------------------------------------------||
||                                                                                             ||
||Ryan Roxie/Keri Kelli                                                                        ||
||-----------------------------------------------||--------------------------------------------||
||-----------------------------------------------||--------_1/4_---_1/4_---_1/4_---------------||
||---sl/7----7-----------7-----------------------||-------/-------/-------/-----\--------------||
||---sl/7---------7----------7-------------------||--5---2-------2-------2--------0---------5--||
||-----------------------------------------------||--5-----------------------------------------||
||-----------------------------------------------||--3-------------------------------5/sl-7----||
          Ain't been there lately - there's no room

||---------------------------------------||
||---------------------------------------||
||---------------------------------------||
||---5\sl--------------------------------||
||---5\sl--------------------------------||
||---------------------------------------||

[fig.1]
||-------------------------------------------------------------__------------------------------||
||--18--15--18--17-h-18-p-17-p-15----17----15-h-17------------/---15-h-18-p-15-----------------||
||--------------------------------17----17---------17-p-15--17-----------------17--------------||
||---------------------------------------------------------------------------------------------||
||---------------------------------------------------------------------------------------------||
||---------------------------------------------------------------------------------------------||

||----__---------------------------------------------------------------------------------------||
||---/---15------------------------------------------------------------------------------------||
||-17-------15----17-15-------------------------10----10--------------------------/sl-12-11-10-||
||-------------17-------15-p-12-15-p-12\sl-10------12----10\sl-8----10^1/4--8-h-9--------------||
||--------------------------------------------13-----------------10----------------------------||
||---------------------------------------------------------------------------------------------||

||---------------------------------------||
||---------------------------------------||
||--12\sl--------------------------------||
||--12\sl--------------------------------||
||---------------------------------------||
||---------------------------------------||
comments
print report bad tab
I want to post or [tab]
guest
You may want to rate the tab now too:
select rating
Please do not post tabs as comments. Select "correction" instead!