Oops, an error
Loading. Please wait.

Mean Bone Tab

ver1
ver1

Solo

Whole song

Interactive

More versions @911Tabs.com
22,368 views 42 this week
no commentswrite comment
1 2 3 4 5
excellent!
x 11
Autoscroll
+/-
esc
set tempo
stop
NEW! There's an official Ultimate Guitar app which is ideal
for learning songs when you're away from computer. Get the app
WARNING: You are trying to view
                                    content from Ultimate-Guitar.com
                                    in an unauthorized application,
                                    which is prohibited.

                                    Please use an official Ultimate
                                    Guitar Tabs application for iPhone,
                                    iPad or Android to access legitimate
                                    chords, guitar, bass, and drum tabs
                                    from Ultimate-Guitar.com database.

                                    Type "ultimate guitar tabs" in Apple
                                    App Store's or Android Market's
                                    search to find the application.
MEAN BONE
As recorded by Slash's Snakepit
(From the 2000 Album AIN'T LIFE GRAND)

Words and Music by Slash's Snakepit
Arranged by Slash's Snakepit
Transcribed by Attila Acs (www.slashssnakepit.de)

Gtr I (Eb Ab Db Gb Bb Eb) - 'Ryan Roxy/Keri Kelli'
Gtr II (Eb Ab Db Gb Bb Eb) - 'Slash (dirty)'
Gtr III (Eb Ab Db Gb Bb Eb) - 'Ryan Roxie/Keri Kelli (dirty)'

 Intro
  Q=120
 4/4
  Gtr I
|---------|-------------------|---------|--------------------|
|---------|-------------------|---------|--------------------|
|---------|--------11----(11)-|---------|--------11----(11)--|
|---------|-9--(9)------------|---------|-9--(9)-------------|
|---------|-------------------|---------|--------------------|
|---------|-------------------|---------|--------------------|


|---------|-------------------|---------|
|---------|-------------------|---------|
|---------|--------11----(11)-|---------|
|---------|-9--(9)------------|---------|
|---------|-------------------|---------|
|---------|-------------------|---------|


                                 H=HQ=130
                                Gtr III
|-------------------|---------|-------------|
|-------------------|---------|-------------|
|--------11----(11)-|---------|-------------|
|-9--(9)------------|---------|-------------|
|-------------------|---------|------14\----|
|-------------------|---------|------14\----|


 Main Riff
  Gtr II
|----------------|---------------|---------------|----------------|
|----------------|---------------|---------------|----------------|
|-4-4-4-4--4-4-4-|--4-4-4--4-4-4-|--4-4-4--4-4-4-|--4-4-4--4-4-4--|
|-4-4-4-4--4-4-4-|--4-4-4--4-4-4-|--4-4-4--4-4-4-|--4-4-4--4-4-4--|
|-2-2-0-2--2-0-2-|--2-0-2--2-0-2-|--2-0-2--2-0-2-|--2-0-2--2-2-0--|
|----------------|---------------|---------------|----------------|
|
| Gtr III
|----------------|---------------|---------------|----------------|
|----------------|---------------|---------------|----------------|
|-4-4-2-4--4-2-4-|--4-2-4--4-2-4-|--4-2-4--4-2-4-|--4-2-4--4-4-2--|
|-4-4-2-4--4-2-4-|--4-2-4--4-2-4-|--4-2-4--4-2-4-|--4-2-4--4-4-2--|
|-2-2-0-2--2-0-2-|--2-0-2--2-0-2-|--2-0-2--2-0-2-|--2-0-2--2-2-0--|
|----------------|---------------|---------------|----------------|


|----------------|---------------|---------------|-------------0----|
|----------------|---------------|---------------|---3---------0----|
|-4-4-4-4--4-4-4-|--4-4-4--4-4-4-|--4-4-4--4-4-4-|---2-2------------|
|-4-4-4-4--4-4-4-|--4-4-4--4-4-4-|--4-4-4--4-4-4-|---0-2-2-(2)------|
|-2-2-0-2--2-0-2-|--2-0-2--2-0-2-|--2-0-2--2-0-2-|-----0-2-(2)------|
|----------------|---------------|---------------|-------0-(0)------|
|
|----------------|---------------|---------------|------------------|
|----------------|---------------|---------------|------------------|
|-4-4-2-4--4-2-4-|--4-2-4--4-2-4-|--4-2-4--4-2-4-|------------------|
|-4-4-2-4--4-2-4-|--4-2-4--4-2-4-|--4-2-4--4-2-4-|------------------|
|-2-2-0-2--2-0-2-|--2-0-2--2-0-2-|--2-0-2--2-0-2-|--/5-0------------|
|----------------|---------------|---------------|-------0-(0)------|


   Verse
    PM---------------------------|    PM--|  PM--|
                                                                     3x
||-----------------|---------------|---------------|----------0------||
||o----------------|---------------|---------------|--3-------0-----o||
||--------2--2-2-2-|--2---2--2---2-|--2---2--2---2-|--2-2------------||
||--4-4-4-4--4-4-4-|--4-4-4--4-4-4-|--4-4-4--4-4-4-|--0-2-2----------||
||o-2-2-0-2--2-0-2-|--2-0-2--2-0-2-|--2-0-2--2-0-2-|------2---------o||
||-----------------|---------------|---------------|------0----------||
|
|   PM-----------------------------------------------|
|                                                                    3x
||-----------------|---------------|---------------|-----------------||
||o----------------|---------------|---------------|--3---0-----(0)-o||
||--4-4-2-4--4-2-4-|--4-2-4--4-2-4-|--4-2-4--4-2-4-|--2---1-----(1)--||
||--4-4-2-4--4-2-4-|--4-2-4--4-2-4-|--4-2-4--4-2-4-|--0---2-----(2)--||
||o-2-2-0-2--2-0-2-|--2-0-2--2-0-2-|--2-0-2--2-0-2-|----------------o||
||-----------------|---------------|---------------|-----------------||


   PM------------------------------|      PM--|  PM--|
|-----------------|------------------|-----------------|-------------------|
|-----------------|------------------|-----------------|-----3-2-0----(0)--|
|--------2--2-2-2-|-----2---2--2---2-|----2---2--2---2-|-----2-2-1----(1)--|
|--4-4-4-4--4-4-4-|-----4-4-4--4-4-4-|----4-4-4--4-4-4-|-----0-2-2----(2)--|
|--2-2-0-2--2-0-2-|-----2-0-2--2-0-2-|----2-0-2--2-0-2-|-------------------|
|-----------------|------------------|-----------------|-------------------|
|
|------0----0-----|-----0------------|------0----0-----|-------------------|
|-/5-----4------2-|-(2)--------------|-/5-----4------2-|-(2)-3---0----(0)--|
|-----------------|---------2--4-----|-----------------|-----2---1----(1)--|
|-----------------|--------------4---|-----------------|-----0---2----(2)--|
|-----------------|------------------|-----------------|-------------------|
|-----------------|------------------|-----------------|-------------------|


   PM------------------------------|      PM--|  PM--|
|-----------------|------------------|-----------------|--------------0---|
|-----------------|------------------|-----------------|-----3-2-0----0---|
|--------2--2-2-2-|-----2---2--2---2-|----2---2--2---2-|-----2-2-1--------|
|--4-4-4-4--4-4-4-|-----4-4-4--4-4-4-|----4-4-4--4-4-4-|-----0-2-2--------|
|--2-2-0-2--2-0-2-|-----2-0-2--2-0-2-|----2-0-2--2-0-2-|------------------|
|-----------------|------------------|-----------------|------------------|
|
|------0----0-----|-----0------------|------0----0-----|--------------0---|
|-/5-----4------2-|-(2)--------------|-/5-----4------2-|-(2)-3---0----0---|
|-----------------|---------2--4-----|-----------------|-----2---1----1-1-|
|-----------------|--------------4---|-----------------|-----0---2------2-|
|-----------------|------------------|-----------------|------------------|
|-----------------|------------------|-----------------|------------------|


|----------------|------------------------|----------------|----------------|
|-3----(3)-----0-|-(0)----(0)-(0)---------|----------------|----------------|
|-2----(2)-----1-|-(1)----(1)-(1)---------|-4-4-4-4--4-4-4-|--4-4-4--4-4-4--|
|-0----(0)-----2-|-(2)----(2)-(2)---------|-4-4-4-4--4-4-4-|--4-4-4--4-4-4--|
|----------------|--------------------14\-|-2-2-0-2--2-0-2-|--2-0-2--2-0-2--|
|----------------|--------------------12\-|----------------|----------------|
|
|----------------|------------------------|----------------|----------------|
|-3----(3)-------|------------------------|----------------|----------------|
|-2----(2)-------|------------------------|-4-4-4-4--4-4-4-|--4-4-4--4-4-4--|
|-0----(0)-------|----------------16\-----|-4-4-4-4--4-4-4-|--4-4-4--4-4-4--|
|----------------|----------------14\-----|-2-2-0-2--2-0-2-|--2-0-2--2-0-2--|
|----------2-3-4-|-(4)--------------------|----------------|----------------|


|----------------|-------------------|-------------------|-----------------|
|-3----(3)-----0-|-(0)----(0)--(0)---|-------------------|-----------------|
|-2----(2)-----1-|-(1)----(1)--(1)---|-------------------|-----------------|
|-0----(0)-----2-|-(2)----(2)--(2)---|-------------------|-----------------|
|----------------|-----------------2-|-(2)-2-3-3-4-4-5-5-|-6-6-7-7-7--8-9--|
|----------------|-----------------0-|-(0)-0-1-1-2-2-3-3-|-4-4-5-5-5--6-7--|
|
|----------------|-------------------|-------------------|-----------------|
|-3----(3)-------|-------------------|-------------------|-----------------|
|-2----(2)-------|-------------------|-------------------|-----------------|
|-0----(0)-------|-------------------|-------------------|-----------------|
|----------------|-----------------2-|-(2)-2-3-3-4-4-5-5-|-6-6-7-7-7--8-9--|
|----------2-3-4-|-(4)----(4)--(4)-0-|-(0)-0-1-1-2-2-3-3-|-4-4-5-5-5--6-7--|


   Chorus
||----------------------|-----------------|
||o---------------------|-----------------|
||-------------7----(7)-|--------9----(9)-|
||-------------7----(7)-|-7--(7)-6----(6)-|
||o-(9)---9--9----------|-7--(7)-7----(7)-|
||--(7)-----------------|-----------------|
|
||----------------------|-----------------|
||o------------7----(7)-|--------9----(9)-|
||-------------7----(7)-|--------9----(9)-|
||---9---(9)---7----(7)-|-7--(7)-9----(9)-|
||o--9---(9)------------|-7--(7)----------|
||---7---(7)------------|-5--(5)----------|


|-------------------|------------------||
|-------------------|-----------------o||
|----------7----(7)-|--------9----(9)--||
|----------7----(7)-|-7--(7)-6----(6)--||
|-9---9--9----------|-7--(7)-7----(7)-o||
|-7-----------------|------------------||
|
|-------------------|------------------||
|----------7----(7)-|--------9----(9)-o||
|----------7----(7)-|--------9----(9)--||
|-9--(9)---7----(7)-|-7--(7)-9----(9)--||
|-9--(9)------------|-7--(7)----------o||
|-7--(7)------------|-5--(5)-----------||


 Interlude
                                                  ~~
|-----------------------------|-----------------------|
|-----------------------------|-----------------------|
|----x-7-x----x----x-9--x-7-x-|----x-7-x----x---------|
|----x-7-x----x----x-9--x-7-x-|----x-7-x----x-----9\--|
|-9---------9---9-------------|-9---------9---9---7\--|
|-7---------7---7-------------|-7---------7---7-------|
|
|                                                 ~~
|-----------------------------|-----------------------|
|-----------------------------|-----------------------|
|----x-7-x----x----x-9--x-7-x-|----x-7-x----x-----9\--|
|-9--x-7-x--9-x-9--x-9--x-7-x-|-9--x-7-x--9-x-9---9\--|
|-9--x-7-x--9-x-9--x-9--x-7-x-|-9--x-7-x--9---9---7\--|
|-7---------7---7-------------|-7---------7---7-------|


                                                ~~~~
|-----------------------------|-----------------------|
|-----------------------------|-----------------------|
|----x-7-x----x----x-9--x-7-x-|----x-7-x--------------|
|----x-7-x----x----x-9--x-7-x-|----x-7-x-----9-(9)\---|
|-9---------9---9-------------|-9---------9--7-(7)\---|
|-7---------7---7-------------|-7---------7-----------|
|
|                                               ~~~~
|-----------------------------|-----------------------|
|-----------------------------|-----------------------|
|----x-7-x----x----x-9--x-7-x-|----x-7-x-----9-(9)\---|
|-9--x-7-x--9-x-9--x-9--x-7-x-|-9--x-7-x--9--9-(9)\---|
|-9--x-7-x--9-x-9--x-9--x-7-x-|-9--x-7-x--9--7-(7)\---|
|-7---------7---7-------------|-7---------7-----------|


 Verse
  PM---------------------------|    PM--|  PM--|
|----------------|---------------|---------------|----------0------|
|----------------|---------------|---------------|--3-------0------|
|-------2--2-2-2-|--2---2--2---2-|--2---2--2---2-|--2-2------------|
|-4-4-4-4--4-4-4-|--4-4-4--4-4-4-|--4-4-4--4-4-4-|--0-2-2----------|
|-2-2-0-2--2-0-2-|--2-0-2--2-0-2-|--2-0-2--2-0-2-|------2----------|
|----------------|---------------|---------------|------0----------|
|
| PM-----------------------------------------------|
|----------------|---------------|---------------|-----------------|
|----------------|---------------|---------------|--3---0-----(0)--|
|-4-4-2-4--4-2-4-|--4-2-4--4-2-4-|--4-2-4--4-2-4-|--2---1-----(1)--|
|-4-4-2-4--4-2-4-|--4-2-4--4-2-4-|--4-2-4--4-2-4-|--0---2-----(2)--|
|-2-2-0-2--2-0-2-|--2-0-2--2-0-2-|--2-0-2--2-0-2-|-----------------|
|----------------|---------------|---------------|-----------------|


  PM--------------------------------|     PM--|  PM--|
|----------------|--------------------|----------------|---------------------|
|----------------|--------------------|----------------|---3-2-0----(0)------|
|-------2--2-2-2-|------2----2--2---2-|---2---2--2---2-|---2-2-1----(1)------|
|-4-4-4-4--4-4-4-|------4--4-4--4-4-4-|---4-4-4--4-4-4-|---0-2-2----(2)------|
|-2-2-0-2--2-0-2-|------2--0-2--2-0-2-|---2-0-2--2-0-2-|---------------------|
|----------------|--------------------|----------------|---------------------|
|
|----------------|--------------------|----------------|-----------------0---|
|-5-----4------2-|-(2)-(2)------------|-5-----4--------|-x-3---0----(0)----0-|
|-4-----4------2-|-(2)-(2)---2--4-----|-4-----4--------|-x-2---1----(1)------|
|----------------|----------------4---|----------------|---0---2----(2)------|
|----------------|--------------------|----------------|---------------------|
|----------------|--------------------|----------------|---------------------|


|----------------|------------------------|----------------|----------------|
|-3----(3)-----0-|-(0)----(0)-(0)---------|----------------|----------------|
|-2----(2)-----1-|-(1)----(1)-(1)---------|-4-4-4-4--4-4-4-|--4-4-4--4-4-4--|
|-0----(0)-----2-|-(2)----(2)-(2)---------|-4-4-4-4--4-4-4-|--4-4-4--4-4-4--|
|----------------|--------------------14\-|-2-2-0-2--2-0-2-|--2-0-2--2-0-2--|
|----------------|--------------------12\-|----------------|----------------|
|
|----------------|------------------------|----------------|----------------|
|-3----(3)-------|------------------------|----------------|----------------|
|-2----(2)-------|------------------------|-4-4-4-4--4-4-4-|--4-4-4--4-4-4--|
|-0----(0)-------|----------------16\-----|-4-4-4-4--4-4-4-|--4-4-4--4-4-4--|
|----------------|----------------14\-----|-2-2-0-2--2-0-2-|--2-0-2--2-0-2--|
|----------2-3-4-|-(4)--------------------|----------------|----------------|


|----------------|-------------------|-------------------|-----------------|
|-3----(3)-----0-|-(0)----(0)--(0)---|-------------------|-----------------|
|-2----(2)-----1-|-(1)----(1)--(1)---|-------------------|-----------------|
|-0----(0)-----2-|-(2)----(2)--(2)---|-------------------|-----------------|
|----------------|-----------------2-|-(2)-2-3-3-4-4-5-5-|-6-6-7-7-7--8-9--|
|----------------|-----------------0-|-(0)-0-1-1-2-2-3-3-|-4-4-5-5-5--6-7--|
|
|----------------|-------------------|-------------------|-----------------|
|-3----(3)-------|-------------------|-------------------|-----------------|
|-2----(2)-------|-------------------|-------------------|-----------------|
|-0----(0)-------|-------------------|-------------------|-----------------|
|----------------|-----------------2-|-(2)-2-3-3-4-4-5-5-|-6-6-7-7-7--8-9--|
|----------2-3-4-|-(4)----(4)--(4)-0-|-(0)-0-1-1-2-2-3-3-|-4-4-5-5-5--6-7--|


   Chorus
||--------------------|-----------------|
||o-------------------|-----------------|
||-----------7----(7)-|--------9----(9)-|
||-----------7----(7)-|-7--(7)-6----(6)-|
||o-9---9--9----------|-7--(7)-7----(7)-|
||--7-----------------|-----------------|
|
||--------------------|-----------------|
||o----------7----(7)-|--------9----(9)-|
||-----------7----(7)-|--------9----(9)-|
||--9--(9)---7----(7)-|-7--(7)-9----(9)-|
||o-9--(9)------------|-7--(7)----------|
||--7--(7)------------|-5--(5)----------|


|-------------------|------------------||
|-------------------|-----------------o||
|----------7----(7)-|--------9----(9)--||
|----------7----(7)-|-7--(7)-6----(6)--||
|-9---9--9----------|-7--(7)-7----(7)-o||
|-7-----------------|------------------||
|
|-------------------|------------------||
|----------7----(7)-|--------9----(9)-o||
|----------7----(7)-|--------9----(9)--||
|-9--(9)---7----(7)-|-7--(7)-9----(9)--||
|-9--(9)------------|-7--(7)----------o||
|-7--(7)------------|-5--(5)-----------||


 Interlude
                                                  ~~
|-----------------------------|-----------------------|
|-----------------------------|-----------------------|
|----x-7-x----x----x-9--x-7-x-|----x-7-x----x---------|
|----x-7-x----x----x-9--x-7-x-|----x-7-x----x-----9\--|
|-9---------9---9-------------|-9---------9---9---7\--|
|-7---------7---7-------------|-7---------7---7-------|
|
|                                                 ~~
|-----------------------------|-----------------------|
|-----------------------------|-----------------------|
|----x-7-x----x----x-9--x-7-x-|----x-7-x----x-----9\--|
|-9--x-7-x--9-x-9--x-9--x-7-x-|-9--x-7-x--9-x-9---9\--|
|-9--x-7-x--9-x-9--x-9--x-7-x-|-9--x-7-x--9---9---7\--|
|-7---------7---7-------------|-7---------7---7-------|


                                                ~~~~
|-----------------------------|-----------------------|
|-----------------------------|-----------------------|
|----x-7-x----x----x-9--x-7-x-|----x-7-x--------------|
|----x-7-x----x----x-9--x-7-x-|----x-7-x-----9-(9)\---|
|-9---------9---9-------------|-9---------9--7-(7)\---|
|-7---------7---7-------------|-7---------7-----------|
|
|                                               ~~~~
|-----------------------------|-----------------------|
|-----------------------------|-----------------------|
|----x-7-x----x----x-9--x-7-x-|----x-7-x-----9-(9)\---|
|-9--x-7-x--9-x-9--x-9--x-7-x-|-9--x-7-x--9--9-(9)\---|
|-9--x-7-x--9-x-9--x-9--x-7-x-|-9--x-7-x--9--7-(7)\---|
|-7---------7---7-------------|-7---------7-----------|


 Guitar Solo
|-----------------------------------|----------------------------|
|----------------------------9---12-|------------9---------------|
|-11pb13r==(11)b13------(11)--------|-11b13r9-11---9---11p9------|
|-----------------------------------|-----------------------11p9-|
|-----------------------------------|----------------------------|
|-----------------------------------|----------------------------|
|
|-----------------------------------|----------------------------|
|-----------------------------------|----------------------------|
|-----------------------------------|----------------------------|
|--6-----6---4-----6--6---4----6----|-------6--4-6---6--4----6---|
|--4-----4---2-----4--4---2----4----|-------4--2-4---4--2----4---|
|-----------------------------------|----------------------------|


|---------------------------------------|
|---------------------------------------|
|-9-------------------------------------|
|---11p9-11-11p9----11p9------9---------|
|----------------11------11p9---11p9S7--|
|---------------------------------------|
|
|---------------------------------------|
|---------------------------------------|
|---------------------------------------|
|----6----4----6----------6---4----6----|
|----4----2----4----------4---2----4----|
|---------------------------------------|


                                        ~~~~
|--------------------------|-----------------9-11-12---11h12p11p9--|
|--------------------------|-12b14====(12)-------------------------|
|--------------------------|---------------------------------------|
|--------------------------|---------------------------------------|
|-9p7-----7-9--7---9p7-----|---------------------------------------|
|-----9p7--------------9p7-|---------------------------------------|
|
|--------------------------|---------------------------------------|
|--------------------------|---------------------------------------|
|--------------------------|---------------------------------------|
|-----6---4-6----6-6---4---|--6-----6---4--6----6----4--------6----|
|-----4---2-4----4-4---2---|--4-----4---2--4----4----2--------4----|
|--------------------------|---------------------------------------|


|-----11-9-12-9----9--------------------------9-------------|
|-12r-----------12---12b14==(12)r12p9----12p9---12p9--------|
|-------------------------------------11-------------11b13==|
|-----------------------------------------------------------|
|-----------------------------------------------------------|
|-----------------------------------------------------------|
|
|-----------------------------------------------------------|
|-----------------------------------------------------------|
|-----------------------------------------------------------|
|--------6----4----6----------------6-------4------6--------|
|--------4----2----4----------------4-------2------4--------|
|-----------------------------------------------------------|


|---------------------------------------9-9---------|
|-------------------------------------------12b14===|
|--(11)rp9----11-(11)----9h11p9----9h11-------------|
|----------11---------11--------11------------------|
|---------------------------------------------------|
|---------------------------------------------------|
|
|---------------------------------------------------|
|---------------------------------------------------|
|---------------------------------------------------|
|----6------4------6-------------6----4------2------|
|----4------2------4-------------4----2------0------|
|---------------------------------------------------|


|--------9r-----10------11------|-12----------------------------------|
|-12----12b14---13b15---14b16---|-15b17---16b18---17b19--18b20r19b21==|
|-------------------------------|-------------------------------------|
|-------------------------------|-------------------------------------|
|-------------------------------|-------------------------------------|
|-------------------------------|-------------------------------------|
|
|-------------------------------|-------------------------------------|
|-------------------------------|-------------------------------------|
|-------------------------------|-------------------------------------|
|-(2)-2--3----3--4----4--5----5-|--6----6--7----7--7------8-----9-----|
|-(0)-0--1----1--2----2--3----3-|--4----4--5----5--5------6-----7-----|
|-------------------------------|-------------------------------------|


                                                  ~~
|---------------------16-19--------|-------------------------|
|-(19)---(19)---(19)r-------19pb21r|=19-17-19----17---19-17--|
|----------------------------------|----------18-------------|
|----------------------------------|-------------------------|
|----------------------------------|-------------------------|
|----------------------------------|-------------------------|
|
|----------------------------------|-------------------------|
|---5--5------5--------5-----5-----|-----5-----5----5-----5--|
|---4--4---4--4--------4--4--4-----|-----4--4--4----4--4--4--|
|---2--2---0--2--------2--0--2-----|-----2--0--2----2--0--2--|
|----------------------------------|-------------------------|
|----------------------------------|-------------------------|


|-19-18-17S15----17p15h16------------|---------------------------------------|
|-------------17----------17p15------|-15------------------------------------|
|---------------------------------16-|----16S14-14p12----14p12---14p12S11----|
|------------------------------------|----------------14------------------14-|
|------------------------------------|---------------------------------------|
|------------------------------------|---------------------------------------|
|
|------------------------------------|---------------------------------------|
|-----5-----5--------5----------5----|--------5-----------5----5--------5----|
|-----4--4--4--------4-----4----4----|--------4-----4-----4----4--4-----4----|
|-----2--0--2--------2-----0----2----|--------2-----0-----2----2--0-----2----|
|------------------------------------|---------------------------------------|
|------------------------------------|---------------------------------------|


|-------------------------------------------|----------------12--------12-|
|-------------------------------------------|-------------------15--------|
|-12h13----12h13----14-12h13----12h13----14-|-12h13----12h13--------------|
|-------14-------14----------14-------14----|-------14--------------------|
|-------------------------------------------|-----------------------------|
|-------------------------------------------|-----------------------------|
|
|-------------------------------------------|-----------------------------|
|--------5-----------5--------5-----------5-|--------5--------5----5----5-|
|--------4-----4-----4--------4-----4-----4-|--------4-----4--4----4-4--4-|
|--------2-----0-----2--------2-----0-----2-|--------2-----0--2----2-0--2-|
|-------------------------------------------|-----------------------------|
|-------------------------------------------|-----------------------------|


|-12------------------------------------------|
|----15p14h15p14----14p12h15p12----12-10b12===|
|----------------15-------------15------------|
|---------------------------------------------|
|---------------------------------------------|
|---------------------------------------------|
|
|---------------------------------------------|
|-----5--------5--------5---------------------|
|-----4--4-----4--------4--------4------------|
|-----2--0-----2--------2--------0------------|
|--------------------------------------2------|
|--------------------------------------0------|


                                                                ~~~~~~
|--------8-------9------10------|-11------12------13-----14-----------|
|-10----11b13---12b14---13b15---|-14b16---15b17---16b18--17b19-17b19==|
|-------------------------------|-------------------------------------|
|-------------------------------|-------------------------------------|
|-------------------------------|-------------------------------------|
|-------------------------------|-------------------------------------|
|
|-------------------------------|-------------------------------------|
|-------------------------------|-------------------------------------|
|-------------------------------|-------------------------------------|
|-------------------------------|-------------------------------------|
|-(2)-2--3----3--4----4--5----5-|--6----6--7----7--7------8-----9-----|
|-(0)-0--1----1--2----2--3----3-|--4----4--5----5--5------6-----7-----|


 Out-Chorus
|---------------------|-----------------|-------------------|------------------|
|---------------------|-----------------|-------------------|------------------|
|------------7----(7)-|--------9----(9)-|----------7----(7)-|--------9----(9)--|
|------------7----(7)-|-7--(7)-6----(6)-|----------7----(7)-|-7--(7)-6----(6)--|
|--9----9--9----------|-7--(7)-7----(7)-|-9---9--9----------|-7--(7)-7----(7)--|
|--7------------------|-----------------|-7-----------------|------------------|
|
|---------------------|-----------------|-------------------|------------------|
|------------7----(7)-|--------9----(9)-|----------7----(7)-|--------9----(9)--|
|------------7----(7)-|--------9----(9)-|----------7----(7)-|--------9----(9)--|
|--9---(9)---7----(7)-|-7--(7)-9----(9)-|-9--(9)---7----(7)-|-7--(7)-9----(9)--|
|--9---(9)------------|-7--(7)----------|-9--(9)------------|-7--(7)-----------|
|--7---(7)------------|-5--(5)----------|-7--(7)------------|-5--(5)-----------|
|
| Gtr II
|---------------------|-----------------|-------------------|------------------|
|-17r-----------------|-----------------|-------------------|------------------|
|---------------------|-----------------|-------------------|------------------|
|---------------------|-----------------|-------------------|------------------|
|---------------------|-----------------|-------------------|------------------|
|---------------------|-----------------|-------------------|------------------|


||--------------------|-----------------|
||o-------------------|-----------------|
||-----------7----(7)-|--------9----(9)-|
||-----------7----(7)-|-7--(7)-6----(6)-|
||o-9---9--9----------|-7--(7)-7----(7)-|
||--7-----------------|-----------------|
|
||--------------------|-----------------|
||o----------7----(7)-|--------9----(9)-|
||-----------7----(7)-|--------9----(9)-|
||--9--(9)---7----(7)-|-7--(7)-9----(9)-|
||o-9--(9)------------|-7--(7)----------|
||--7--(7)------------|-5--(5)----------|


                                       3x
|-------------------|------------------||
|-------------------|-----------------o||
|----------7----(7)-|--------9----(9)--||
|----------7----(7)-|-7--(7)-6----(6)--||
|-9---9--9----------|-7--(7)-7----(7)-o||
|-7-----------------|------------------||
|
|                                      3x
|-------------------|------------------||
|----------7----(7)-|--------9----(9)-o||
|----------7----(7)-|--------9----(9)--||
|-9--(9)---7----(7)-|-7--(7)-9----(9)--||
|-9--(9)------------|-7--(7)----------o||
|-7--(7)------------|-5--(5)-----------||


   Outro
                                                    ~~
                                                         3x
||------------------------------|------------------------||
||o-----------------------------|-----------------------o||
||-----x-7-x----x----x-9--x-7-x-|----x-7-x----x----------||
||-----x-7-x----x----x-9--x-7-x-|----x-7-x----x-----9\---||
||o-9---------9---9-------------|-9---------9---9---7\--o||
||--7---------7---7-------------|-7---------7---7--------||
|
|                                                   ~~
|                                                        3x
||------------------------------|------------------------||
||o-----------------------------|-----------------------o||
||-----x-7-x----x----x-9--x-7-x-|----x-7-x----x-----9\---||
||--9--x-7-x--9-x-9--x-9--x-7-x-|-9--x-7-x--9-x-9---9\---||
||o-9--x-7-x--9-x-9--x-9--x-7-x-|-9--x-7-x--9---9---7\--o||
||--7---------7---7-------------|-7---------7---7--------||


|-----------------------------|--------------------|
|-----------------------------|--------------------|
|----x-7-x----x----x-9--x-7-x-|----x-7-------------|
|----x-7-x----x----x-9--x-7-x-|----x-7-------------|
|-9---------9---9-------------|-9--------9---5-0-2-|
|-7---------7---7-------------|-7--------7-------0-|
|
|-----------------------------|--------------------|
|-----------------------------|--------------------|
|----x-7-x----x----x-9--x-7-x-|----x-7-x-----------|
|-9--x-7-x--9-x-9--x-9--x-7-x-|-9--x-7-x-----------|
|-9--x-7-x--9-x-9--x-9--x-7-x-|-9--x-7-x-9---5-0-2-|
|-7---------7---7-------------|-7--------7-------0-|
|
| Gtr II
|-----------------------------|--------------------|
|-----------------------------|--------------------|
|-----------------------------|--------------------|
|-----------------------------|--------------------|
|-----------------------------|--------------------|
|-----------------------------|--------------------|


|------------|-------------|--------*|
|------------|-------------|--------*|
|------------|-------------|--------*|
|------------|-------------|--------*|
|-(2)--------|-(2)---------|--------*|
|-(0)--------|-(0)---------|--------*|
|
|                             >
|------------|------0------|--------*|
|------------|--------0-3--|-(3)----*|
|------------|-------------|--------*|
|------------|-------------|--------*|
|-(2)--------|-------------|--------*|
|-(0)--------|-------------|--------*|
|
|                             >
|------------|--------0----|--------*|
|------------|------0---3--|-(3)----*|
|------------|--0h1--------|--------*|
|------------|-------------|--------*|
|------------|-------------|--------*|
|------------|-------------|--------*|


Tablature Legend
----------------
 h   - hammer-on
 p   - pull-off
 b   - bend
 pb  - pre-bend
 r   - bend release (if no number after the r, then release immediately)
 /\  - slide into or out of (from/to "nowhere")
 s   - legato slide
 S   - shift slide
<n>  - natural harmonic
[n]  - artificial harmonic
n(n) - tapped harmonic
 ~   - vibrato
 tr  - trill
 T   - tap
 TP  - trem. picking
 PM  - palm muting
\n/  - tremolo bar dip; n = amount to dip
 \n  - tremolo bar down
 n/  - tremolo bar up
/n\  - tremolo bar inverted dip
 =   - hold bend; also acts as connecting device for hammers/pulls
 <>  - volume swell (louder/softer)
 x   - on rhythm slash represents muted slash
 o   - on rhythm slash represents single note slash

Misc Legend
-----------
 |  - bar
||  - double bar
||o - repeat start
o|| - repeat end
*|  - double bar (ending)
 :  - bar (freetime)
 $  - Segno
 &  - Coda
Tempo markers - <E/E./Q/Q./H/H.> = BPM(8/16=s8/s16), where s8 = swing 8ths, s16 = swing 16ths
comments
print report bad tab
I want to post or [tab]
guest
You may want to rate the tab now too:
select rating
Please do not post tabs as comments. Select "correction" instead!