Oops, an error
Loading. Please wait.

Shine Tab

ver2
ver2

Whole song

More versions @911Tabs.com
2,540 views 6 this week
no commentswrite comment
1 2 3 4 5
excellent!
x 3
Autoscroll
+/-
esc
set tempo
stop
WARNING: You are trying to view
                                    content from Ultimate-Guitar.com
                                    in an unauthorized application,
                                    which is prohibited.

                                    Please use an official Ultimate
                                    Guitar Tabs application for iPhone,
                                    iPad or Android to access legitimate
                                    chords, guitar, bass, and drum tabs
                                    from Ultimate-Guitar.com database.

                                    Type "ultimate guitar tabs" in Apple
                                    App Store's or Android Market's
                                    search to find the application.
"Shine"
(As recorded by Slash's Snakepit on "Ain't Life Grand")
Transcribed by: Attila Acs (webmaster@slashssnakepit.de)
visit http://www.slashssnakepit.de for more Snakepit-tabs
Tune your guitar flat!!!

Intro: (00:00 - 00:44)
=================================================================================================
  Slash
||-0----------------------------------------------------------||
||-0----------------------------------------------------------||
||-X----------------------------------------------------------||
||-2----------------------------------------------------------||
||-2----------------------------------------------------------||
||-0--(let ring)----------------------------------------------||
||                                                            ||
||Ryan Roxie/Keri Kelli                                       ||
||                            |-Harm.------------|            ||
||-0-------------------------------12-------------------------||
||-0---------------------------12----------7------------------||
||-X-----------------------------------5-------7--------------||
||-2----------------------------------------------------------||
||-2----------------------------------------------------------||
||-0--(let ring)----------------------------------------------||


  Slash (w/wah & slide)
||-(16)\sl-12-12-12\sl--10-10-10\sl-7-7\sl--5-5-5-------------||
||------------------------------------------------------------||
||------------------------------------------------------------||
||------------------------------------------------------------||
||------------------------------------------------------------||
||------------------------------------------------------------||
||                                                            ||
||Ryan Roxie/Keri Kelli (clean, let ring)                     ||
||                                                            ||
||------------0------------------2----------------------------||
||---------------0--------------------------------------------||
||----0-h1------------1-1-h2----------------------------------||
||---------2------------------0-------------------------------||
||------------------------------------------------------------||
||------------------------------------------------------------||


  Slash (w/wah & slide)
||-4-5-7\sl-5-4\sl-2--0---------------------------------------||
||-----------------------3-----3-5-7--------------------------||
||------------------------------------------------------------||
||------------------------------------------------------------||
||------------------------------------------------------------||
||------------------------------------------------------------||
||                                                            ||
||Ryan Roxie/Keri Kelli (clean, let ring)                     ||
||                                                            ||
||------------0------------------0----------------------------||
||---------------0--------------------------------------------||
||----0-h1------------1-1-h2----------------------------------||
||---------2------------------0-------------------------------||
||------------------------------------------------------------||
||------------------------------------------------------------||


  Slash (w/wah & slide)
||------------------------------------------------------------||
||--5--5\sl-(3)---------------------------------------(/sl)---||
||-----------------4--7---------------------------------------||
||----------------------------7\sl----6~~-----(\sl)-----------||
||------------------------------------------------------------||
||------------------------------------------------------------||
||                                                            ||
||Ryan Roxie/Keri Kelli (clean, let ring)                     ||
||                                                            ||
||-----------0----------------2------------0----------------0-||
||-------------0------------------------------0---------------||
||---0-h1----------1-1-h2----------0-h1----------1-1-h2-------||
||--------2----------------0------------2----------------0----||
||------------------------------------------------------------||
||------------------------------------------------------------||


  Slash (w/wah & slide)
||-(16)\sl-12-12-12\sl--10-10-10\sl-7-7\sl--5-5-5-------------||
||------------------------------------------------------------||
||------------------------------------------------------------||
||------------------------------------------------------------||
||------------------------------------------------------------||
||------------------------------------------------------------||
||                                                            ||
||Ryan Roxie/Keri Kelli (clean, let ring)                     ||
||                                                            ||
||------------0------------------2----------------------------||
||---------------0--------------------------------------------||
||----0-h1------------1-1-h2----------------------------------||
||---------2------------------0-------------------------------||
||------------------------------------------------------------||
||------------------------------------------------------------||


  Slash (w/wah & slide)
||-4-5-7\sl-5-4\sl-2--0---------------------------------------||
||-----------------------3-----3-5-7--------------------------||
||------------------------------------------------------------||
||------------------------------------------------------------||
||------------------------------------------------------------||
||------------------------------------------------------------||
||                                                            ||
||Ryan Roxie/Keri Kelli (clean, let ring)                     ||
||                                                            ||
||------------0------------------0----------------------------||
||---------------0--------------------------------------------||
||----0-h1------------1-1-h2----------------------------------||
||---------2------------------0-------------------------------||
||------------------------------------------------------------||
||------------------------------------------------------------||


  Slash (w/wah & slide)
||------------------------------------------------------------||
||--5--5\sl-(3)---------------------------------------(/sl)---||
||-----------------4--7---------------------------------------||
||----------------------------7\sl----6~~-----(\sl)-----------||
||------------------------------------------------------------||
||------------------------------------------------------------||
||                                                            ||
||Ryan Roxie/Keri Kelli (clean, let ring)                     ||
||                                                            ||
||-----------0----------------2------------0----------5--0----||
||-------------0------------------------------0---------------||
||---0-h1----------1-1-h2----------0-h1----------1-2----------||
||--------2----------------0------------2----------------0----||
||------------------------------------------------------------||
||------------------------------------------------------------||


  Slash (time to drop the slide :-) )
||------------------------------------------------------------||
||------------------------------------------------------------||
||------------------------------------------------------------||
||------------------------------------------------------------||
||------------------------------------------------------------||
||------------------------------------------------------------||
||                                                            ||
||Ryan Roxie/Keri Kelli (clean, let ring)                     ||
||                                                            ||
||-----------0----------------2------------0----------------0-||
||-------------0------------------------------0---------------||
||---0-h1----------1-1-h2----------0-h1----------1-1-h2-------||
||--------2----------------0------------2----------------0----||
||------------------------------------------------------------||
||------------------------------------------------------------||
    Ah...                         Ahaahhhaammmmm....

=================================================================================================
=================================================================================================
Verse: (00:44 - 01:10)
=================================================================================================

During the verses Slash also plays the same thing like RR/KK (on the acoustic side of his
Guild doubleneck). But I just wrote down the fill-ins he plays w/wah & slide...

  Slash
||------------------------------------------------------------||
||------------------------------------------------------------||
||------------------------------------------------------------||
||------------------------------------------------------------||
||------------------------------------------------------------||
||------------------------------------------------------------||
||                                                            ||
||Ryan Roxie/Keri Kelli                                       ||
||                                                            ||
||-------------------------------------------------------5----||
||-----------5----------------7------------5----------------5-||
||---------4---4-----------4-------------4---4----------------||
||---5-h6---------6-6/sl-7---------5-h6----------6-/sl-7------||
||------------------------------------------------------------||
||------------------------------------------------------------||
     You turn me on                 like some midnight show,


  Slash (w/wah)
||-----------------------------------12-----------------------||
||-----------------------------/sl-12---12-10--(/sl)-8-8--\sl-||
||------------------------------------------------------------||
||------------------------------------------------------------||
||------------------------------------------------------------||
||------------------------------------------------------------||
||                                                            ||
||Ryan Roxie/Keri Kelli                                       ||
||                                                            ||
||-------------------------------------------------------5----||
||-----------5----------------7------------5----------------5-||
||---------4---4-----------4-------------4---4----------------||
||---5-h6---------6-6/sl-7---------5-h6----------6-/sl-7------||
||------------------------------------------------------------||
||------------------------------------------------------------||
           I'm so damn strung


  Slash
||------------------------------------------------------------||
||------------------------------------------------------------||
||------------------------------------------------------------||
||------------------------------------------------------------||
||------------------------------------------------------------||
||------------------------------------------------------------||
||                                                            ||
||Ryan Roxie/Keri Kelli                                       ||
||                                                            ||
||-------------------------------------------------------5----||
||-----------5----------------7------------5----------------5-||
||---------4---4-----------4-------------4---4----------------||
||---5-h6---------6-6/sl-7---------5-h6----------6-/sl-7------||
||------------------------------------------------------------||
||------------------------------------------------------------||
     You burn me out                 red line overload,


  Slash
||--------------------/sl--17-\sl-16--------\sl---------------||
||------------------------------------------\sl---------------||
||------------------------------------------\sl---------------||
||------------------------------------------------------------||
||------------------------------------------------------------||
||------------------------------------------------------------||
||                                                            ||
||Ryan Roxie/Keri Kelli                                       ||
||                                                            ||
||-------------------------------------------------------5----||
||-----------5----------------7------------5------------------||
||---------4---4-----------4-------------4---4----------------||
||---5-h6---------6-6/sl-7---------5-h6----------6-/sl-7------||
||------------------------------------------------------------||
||------------------------------------------------------------||
           then watch me blow

=================================================================================================
=================================================================================================
Pre chorus: (01:10 - 01:30)
=================================================================================================

  Slash
||------------------------------------------------------------||
||------------------------------------------------------------||
||------------------------------------------------------------||
||------------------------------------------------------------||
||---5-6-7--------5--6-7--5-6-7-----5-6-7-------5--6-7--5-6-7-||
||----------5-6-7-------------------------5-6-7---------------||
||                                                            ||
||Ryan Roxie/Keri Kelli                                       ||
||                                                            ||
||------------------------------------------------------------||
||-X-X-4-4-4---X-4-X-4-X-7-8-9----X-X-4-4-4---X-4-X-4-X-7-8-9-||
||-X-X-4-4-4h6-X-6-X-6-X-7-8-9----X-X-4-4-4h6-X-6-X-6-X-7-8-9-||
||-X-X-4-4-4---X-X-X-4-X-7-8-9----X-X-4-4-4---X-X-X-4-X-7-8-9-||
||------------------------------------------------------------||
||------------------------------------------------------------||
  Well I've been waiting           hypnotized down on your floor


  Slash
||--------------------------------------------------------------------||
||--------------------------------------------------------------------||
||--------------------------------------------------------------------||
||--------------------------------------------------------------------||
||---5-6-7--------5--6-7--5-6-7-----5-6-7-------5--6-7--5-6-7---------||
||----------5-6-7-------------------------5-6-7-----------------------||
||                                                                    ||
||Ryan Roxie/Keri Kelli                                               ||
||                                                                    ||
||--------------------------------------------------------------------||
||-X-X-4-4-4---X-4-X-4-X-7-8-9----X-X-4-4-4---X-4-X-4-X-7-8-9---------||
||-X-X-4-4-4h6-X-6-X-6-X-7-8-9----X-X-4-4-4h6-X-6-X-6-X-7-8-9---------||
||-X-X-4-4-4---X-X-X-4-X-7-8-9----X-X-4-4-4---X-X-X-4-X-7-8-9---------||
||--------------------------------------------------------------------||
||--------------------------------------------------------------------||
  You can't save me        You don't have Adam and Eve to kick around


  Slash
||--------------------------------------------------------------------||
||--------------------------------------------------------------------||
||---5--5--5-X-5-5--5--5--5---/sl--6--6--6--6-------------------------||
||---5--5--5-X-5-5--5--5--5---/sl--6--6--6--6------X--7--7--7--7------||
||---3--3--3-X-3-3--3--3--3---/sl--4--4--4--4------X--7--7--7--7------||
||-------------------------------------------------X--5--5--5--5------||
||                                                                    ||
||Ryan Roxie/Keri Kelli                                               ||
||                                                                    ||
||--------------------------------------------------------------------||
||-----------------------------------------------X--2--2--2-------14~-||
||---5--5-X-X-X-X--5--5-X-X-X-X--6--6--6--6------X--2--2--2-----------||
||---5--5-X-X-X-X--5--5-X-X-X-X--6--6--6--6------X--2--2--2-/sl-14~---||
||---3--3-X-X-X-X--3--3-X-X-X-X--4--4--4--4------X--0--0--0-----------||
||--------------------------------------------------------------------||
  anymore. They really do write the song      They want everybody to...


=================================================================================================
=================================================================================================
Chorus: (01:30 - 01:49)
=================================================================================================

  Slash
||-----------------------------------------------------------------------------||
||-----------------------------------------------------------------------------||
||----------------------_1/4_----------------------------------_1/4_-----------||
||----_1/4_------------/---------------------_1/4_------------/----------------||
||---/---------5-6-7--5---------------------/---------5-6-7--5-----------------||
||--3--------0----------------7-0-5-3-0----3--------0----------------7-0-5-3-0-||
||                                                                             ||
||Ryan Roxie/Keri Kelli                                                        ||
||                                                                             ||
||-----------------------------------------------------------------------------||
||----------------------_1/4_----------------------------------_1/4_-----------||
||---------------------/_1/4_---------------------------------/_1/4_-----------||
||----_1/4_-----------5/---------------------_1/4_-----------5/----------------||
||---/---------5-6-7--5---------------------/---------5-6-7--5-----------------||
||--3--------0----------------7-0-5-3-0----3--------0----------------7-0-5-3-0-||
   Shine,                                                      they want you to


  Slash
||-----------------------------------------------------------------------------||
||-----------------------------------------------------------------------------||
||----------------------_1/4_----------------------------------_1/4_-----------||
||----_1/4_------------/---------------------_1/4_------------/----------------||
||---/---------5-6-7--5---------------------/---------5-6-7--5-----------------||
||--3--------0----------------7-0-5-3-0----3--------0----------------7-0-5-3-0-||
||                                                                             ||
||Ryan Roxie/Keri Kelli                                                        ||
||                                                                             ||
||-----------------------------------------------------------------------------||
||----------------------_1/4_----------------------------------_1/4_-----------||
||---------------------/_1/4_---------------------------------/_1/4_-----------||
||----_1/4_-----------5/---------------------_1/4_-----------5/----------------||
||---/---------5-6-7--5---------------------/---------5-6-7--5-----------------||
||--3--------0----------------7-0-5-3-0----3--------0----------------7-0-5-3-0-||
   shine


  Slash                                 (w/wah & slide)
||--------------------------------0------(10)/sl--------------||
||--------------------------------0---------------------------||
||---0---0---0---0--------------------------------------------||
||---------------------_1/4_---2------------------------------||
||-3---2---0----------/-----\--2------------------------------||
||-------------3---2-2---------0------------------------------||
||                                                            ||
||Ryan Roxie/Keri Kelli                                       ||
||                                                            ||
||--------------------------------0---------------------------||
||-------0------------------------0---------------------------||
||---5---0---2------------------------------------------------||
||---5-------2---------_1/4_----------------------------------||
||-3---2---0----------/-----\---------------------------------||
||-------------3---2-2---------0------------------------------||
  Stand beneath the sun and you too can shine

=================================================================================================
=================================================================================================
Interlude: (01:49 - 02:02)
=================================================================================================

  Slash (w/wah & slide)
||-(16)\sl-12-12-12\sl--10-10-10\sl-7-7\sl--5-5-5-------------||
||------------------------------------------------------------||
||------------------------------------------------------------||
||------------------------------------------------------------||
||------------------------------------------------------------||
||------------------------------------------------------------||
||                                                            ||
||Ryan Roxie/Keri Kelli (clean, let ring)                     ||
||                                                            ||
||------------0------------------2----------------------------||
||---------------0--------------------------------------------||
||----0-h1------------1-1-h2----------------------------------||
||---------2------------------0-------------------------------||
||------------------------------------------------------------||
||------------------------------------------------------------||


  Slash (w/wah & slide)
||-4-5-7\sl-5-4\sl-2--0---------------------------------------||
||-----------------------3-----3-5-7--------------------------||
||------------------------------------------------------------||
||------------------------------------------------------------||
||------------------------------------------------------------||
||------------------------------------------------------------||
||                                                            ||
||Ryan Roxie/Keri Kelli (clean, let ring)                     ||
||                                                            ||
||------------0------------------0----------------------------||
||---------------0--------------------------------------------||
||----0-h1------------1-1-h2----------------------------------||
||---------2------------------0-------------------------------||
||------------------------------------------------------------||
||------------------------------------------------------------||


  Slash (w/wah & slide)
||------------------------------------------------------------||
||--5--5\sl-(3)-----------------------------------------------||
||-----------------4--7---------------------------------------||
||----------------------------7\sl----6~~-----(\sl)-----------||
||------------------------------------------------------------||
||------------------------------------------------------------||
||                                                            ||
||Ryan Roxie/Keri Kelli (clean, let ring)                     ||
||                                                            ||
||-----------0----------------2------------0----------------0-||
||-------------0------------------------------0---------------||
||---0-h1----------1-1-h2----------0-h1----------1-1-h2-------||
||--------2----------------0------------2----------------0----||
||------------------------------------------------------------||
||------------------------------------------------------------||

=================================================================================================
=================================================================================================
Verse: (02:02 - 02:15)
=================================================================================================

  Slash (hold wah sound w/slide)
||---------------------------------------------------16\sl----||
||------------------------------------------------------------||
||------------------------------------------------------------||
||------------------------------------------------------------||
||------------------------------------------------------------||
||------------------------------------------------------------||
||                                                            ||
||Ryan Roxie/Keri Kelli                                       ||
||                                                            ||
||-------------------------------------------------------5----||
||-----------5----------------7------------5----------------5-||
||---------4---4-----------4-------------4---4----------------||
||---5-h6---------6-6/sl-7---------5-h6----------6-/sl-7------||
||------------------------------------------------------------||
||------------------------------------------------------------||
     I shed my skin,                 if you peel it back,


  Slash
||----------------------------------16\sl----/sl--------------||
||------------------------------------------------------------||
||------------------------------------------------------------||
||------------------------------------------------------------||
||------------------------------------------------------------||
||------------------------------------------------------------||
||                                                            ||
||Ryan Roxie/Keri Kelli                                       ||
||                                                            ||
||-------------------------------------------------------5----||
||-----------5----------------7------------5----------------5-||
||---------4---4-----------4-------------4---4----------------||
||---5-h6---------6-6/sl-7---------5-h6----------6-/sl-7------||
||------------------------------------------------------------||
||------------------------------------------------------------||
           unoriginal sin


=================================================================================================
=================================================================================================
Pre chorus: (02:15 - 02:34)
=================================================================================================

  Slash
||------------------------------------------------------------||
||------------------------------------------------------------||
||------------------------------------------------------------||
||------------------------------------------------------------||
||---5-6-7--------5--6-7--5-6-7-----5-6-7-------5--6-7--5-6-7-||
||----------5-6-7-------------------------5-6-7---------------||
||                                                            ||
||Ryan Roxie/Keri Kelli                                       ||
||                                                            ||
||------------------------------------------------------------||
||-X-X-4-4-4---X-4-X-4-X-7-8-9----X-X-4-4-4---X-4-X-4-X-7-8-9-||
||-X-X-4-4-4h6-X-6-X-6-X-7-8-9----X-X-4-4-4h6-X-6-X-6-X-7-8-9-||
||-X-X-4-4-4---X-X-X-4-X-7-8-9----X-X-4-4-4---X-X-X-4-X-7-8-9-||
||------------------------------------------------------------||
||------------------------------------------------------------||
  Well, I've been wasting,      hypnotized down on your phone


  Slash
||--------------------------------------------------------------------||
||--------------------------------------------------------------------||
||--------------------------------------------------------------------||
||--------------------------------------------------------------------||
||---5-6-7--------5--6-7--5-6-7-----5-6-7-------5--6-7--5-6-7---------||
||----------5-6-7-------------------------5-6-7-----------------------||
||                                                                    ||
||Ryan Roxie/Keri Kelli                                               ||
||                                                                    ||
||--------------------------------------------------------------------||
||-X-X-4-4-4---X-4-X-4-X-7-8-9----X-X-4-4-4---X-4-X-4-X-7-8-9---------||
||-X-X-4-4-4h6-X-6-X-6-X-7-8-9----X-X-4-4-4h6-X-6-X-6-X-7-8-9---------||
||-X-X-4-4-4---X-X-X-4-X-7-8-9----X-X-4-4-4---X-X-X-4-X-7-8-9---------||
||--------------------------------------------------------------------||
||--------------------------------------------------------------------||
  You can't save me        You don't have Adam and Eve to kick around


  Slash
||--------------------------------------------------------------------||
||--------------------------------------------------------------------||
||---5--5--5-X-5-5--5--5--5---/sl--6--6--6--6-------------------------||
||---5--5--5-X-5-5--5--5--5---/sl--6--6--6--6------X--7--7--7--7------||
||---3--3--3-X-3-3--3--3--3---/sl--4--4--4--4------X--7--7--7--7------||
||-------------------------------------------------X--5--5--5--5------||
||                                                                    ||
||Ryan Roxie/Keri Kelli                                               ||
||                                                                    ||
||--------------------------------------------------------------------||
||-----------------------------------------------X--2--2--2-------14~-||
||---5--5-X-X-X-X--5--5-X-X-X-X--6--6--6--6------X--2--2--2-----------||
||---5--5-X-X-X-X--5--5-X-X-X-X--6--6--6--6------X--2--2--2-/sl-14~---||
||---3--3-X-X-X-X--3--3-X-X-X-X--4--4--4--4------X--0--0--0-----------||
||--------------------------------------------------------------------||
  anymore. You really do rock the show      They want everybody to...


=================================================================================================
=================================================================================================
Chorus: (02:34 - 03:08)
=================================================================================================

  Slash
||-----------------------------------------------------------------------------||
||-----------------------------------------------------------------------------||
||----------------------_1/4_----------------------------------_1/4_-----------||
||----_1/4_------------/---------------------_1/4_------------/----------------||
||---/---------5-6-7--5---------------------/---------5-6-7--5-----------------||
||--3--------0----------------7-0-5-3-0----3--------0----------------7-0-5-3-0-||
||                                                                             ||
||Ryan Roxie/Keri Kelli                                                        ||
||                                                                             ||
||-----------------------------------------------------------------------------||
||----------------------_1/4_----------------------------------_1/4_-----------||
||---------------------/_1/4_---------------------------------/_1/4_-----------||
||----_1/4_-----------5/---------------------_1/4_-----------5/----------------||
||---/---------5-6-7--5---------------------/---------5-6-7--5-----------------||
||--3--------0----------------7-0-5-3-0----3--------0----------------7-0-5-3-0-||
   Shine,                                                      they want you to

                                                           |---w/wah----------|
  Slash                                                    |    _1_           |
||-------------------------------------------------------------/-12--12--12\sl-||
||------------------------------------------------------------/----12----------||
||----------------------_1/4_-------------------------------14---------12------||
||----_1/4_------------/---------------------_1/4_-----------------------------||
||---/---------5-6-7--5---------------------/---------5-6-7--------------------||
||--3--------0----------------7-0-5-3-0----3--------0--------------------------||
||                                                                             ||
||Ryan Roxie/Keri Kelli                                                        ||
||                                                                             ||
||-----------------------------------------------------------------------------||
||----------------------_1/4_----------------------------------_1/4_-----------||
||---------------------/_1/4_---------------------------------/_1/4_-----------||
||----_1/4_-----------5/---------------------_1/4_-----------5/----------------||
||---/---------5-6-7--5---------------------/---------5-6-7--5-----------------||
||--3--------0----------------7-0-5-3-0----3--------0----------------7-0-5-3-0-||
   shine                                                    Everybody


  Slash
||-----------------------------------------------------------------------------||
||-----------------------------------------------------------------------------||
||----------------------_1/4_----------------------------------_1/4_-----------||
||----_1/4_------------/---------------------_1/4_------------/----------------||
||---/---------5-6-7--5---------------------/---------5-6-7--5-----------------||
||--3--------0----------------7-0-5-3-0----3--------0----------------7-0-5-3-0-||
||                                                                             ||
||Ryan Roxie/Keri Kelli                                                        ||
||                                                                             ||
||-----------------------------------------------------------------------------||
||----------------------_1/4_----------------------------------_1/4_-----------||
||---------------------/_1/4_---------------------------------/_1/4_-----------||
||----_1/4_-----------5/---------------------_1/4_-----------5/----------------||
||---/---------5-6-7--5---------------------/---------5-6-7--5-----------------||
||--3--------0----------------7-0-5-3-0----3--------0----------------7-0-5-3-0-||
   Shine if you're loaded baby          Shine any place that you're gonna be


  Slash
||-----------------------------------------------------------------------------||
||-----------------------------------------------------------------------------||
||----------------------_1/4_----------------------------------_1/4_-----------||
||----_1/4_------------/---------------------_1/4_------------/----------------||
||---/---------5-6-7--5---------------------/---------5-6-7--5-----------------||
||--3--------0----------------7-0-5-3-0----3--------0----------------7-0-5-3-0-||
||                                                                             ||
||Ryan Roxie/Keri Kelli                                                        ||
||                                                                             ||
||-----------------------------------------------------------------------------||
||----------------------_1/4_----------------------------------_1/4_-----------||
||---------------------/_1/4_---------------------------------/_1/4_-----------||
||----_1/4_-----------5/---------------------_1/4_-----------5/----------------||
||---/---------5-6-7--5---------------------/---------5-6-7--5-----------------||
||--3--------0----------------7-0-5-3-0----3--------0----------------7-0-5-3-0-||
   Shine


  Slash
||---------------------------------------------------------------------||
||---------------------------------------------------------------------||
||---0---0---0---0-----------------------------------------------------||
||-----------------4--4--4--4--4-X-4--4--4---3--3--3--3--3-X-3--3--3---||
||-3---2---0-------4--4--4--4--4-X-4--4--4---3--3--3--3--3-X-3--3--3---||
||-------------3---2--2--2--2--2-X-2--2--2---1--1--1--1--1-X-1--1--1---||
||                                                                     ||
||Ryan Roxie/Keri Kelli                                                ||
||                                                                     ||
||------------------------_1/2_-------_1/2_--------_1/2_-------_1/2_---||
||-------0---------------/-----\-----/-----\------/-----\-----/-----\--||
||---5---0---2----------3-----------3------------2-----------2---------||
||---5-------2--------4----------4-------------3-----------3-----------||
||-3---2---0-----------------------------------------------------------||
||-------------3--2--2----------2-------------1-----------1------------||
  Stand beneath the sun and you too can shine


=================================================================================================
=================================================================================================
Bridge: (03:08 - 03:35)
=================================================================================================


  Slash
||------5---------5---------5---------5-----------------------||
||----5---5-----4---4-----3---3-----2---2---------------------||
||------------------------------------------------------------||
||-2---------1---------0--------------------------------------||
||-------------------------------4----------------------------||
||------------------------------------------------------------||
||                                                            ||
||Ryan Roxie/Keri Kelli                                       ||
|| (let ring)                                                 ||
||------------------------------------------------------------||
||------2---------1---------0-------2-----2-------------------||
||----2---2-----2---2-----2---2-----2-----2-------------------||
||---------------------0--------------------------------------||
||-0---------0-------------------0-----0----------------------||
||------------------------------------------------------------||
  So violated, the way we burned out from its fire


  Slash
||------5---------5---------5----------------_1/2_------------||
||----5---5-----4---4-----3---3-------------/-----\-----------||
||---------------------------------------2-4--------2---------||
||-2---------1---------0-------------------------------4-p2---||
||-------------------------------4----------------------------||
||------------------------------------------------------------||
||                                                            ||
||Ryan Roxie/Keri Kelli                                       ||
|| (let ring)                                                 ||
||-------------------------------------------_1/2_----/sl--10-||
||------2---------1---------0-------2-------/-----\---/sl--10-||
||----2---2-----2---2-----2---2-----2----2-4------------------||
||---------------------0--------------------------------------||
||-0---------0-------------------0-----0----------------------||
||------------------------------------------------------------||
  So violated, the way we killed the sun 


  Slash
||------5---------5---------5---------5-----------------------||
||----5---5-----4---4-----3---3-----2---2---------------------||
||------------------------------------------------------------||
||-2---------1---------0--------------------------------------||
||-------------------------------4----------------------------||
||------------------------------------------------------------||
||                                                            ||
||Ryan Roxie/Keri Kelli                                       ||
|| (let ring)                                                 ||
||------------------------------------------------------------||
||------2---------1---------0-------2-----2-------------------||
||----2---2-----2---2-----2---2-----2-----2-------------------||
||---------------------0--------------------------------------||
||-0---------0-------------------0-----0----------------------||
||------------------------------------------------------------||
  So violated, the way we burned out from its fire


  Slash                                |-w/wah & slide---|
||------5---------5------------------------\sl----------------||
||----5---5-----4---4----------------------\sl----------------||
||-----------------------7---7----6---------------------------||
||-2---------1-----------7---7----7---------------------------||
||-----------------------5---5----7---------------------------||
||------------------------------------------------------------||
||                                                            ||
||Ryan Roxie/Keri Kelli                                       ||
|| (let ring)                                                 ||
||------------------------------------------------------------||
||------2---------1-------------------------------------------||
||----2---2-----2---2----7---7----6---------------------------||
||-----------------------7---7----7---------------------------||
||-0---------0-----------5---5----7---------------------------||
||------------------------------------------------------------||
  So violated, the way we killed the sun 


=================================================================================================
=================================================================================================
Interlude: (03:35 - 03:48)
=================================================================================================

  Slash (w/wah & slide)
||---------12-12-12\sl--10-10-10\sl-7-7\sl--5-5-5-------------||
||------------------------------------------------------------||
||------------------------------------------------------------||
||------------------------------------------------------------||
||------------------------------------------------------------||
||------------------------------------------------------------||
||                                                            ||
||Ryan Roxie/Keri Kelli (clean, let ring)                     ||
||                                                            ||
||------------0------------------2----------------------------||
||---------------0--------------------------------------------||
||----0-h1------------1-1-h2----------------------------------||
||---------2------------------0-------------------------------||
||------------------------------------------------------------||
||------------------------------------------------------------||


  Slash (w/wah & slide)
||-4-5-7\sl-5-4\sl-2-0-0--------------------------------------||
||------------------------------------------------------------||
||------------------------------------------------------------||
||------------------------------------------------------------||
||------------------------------------------------------------||
||------------------------------------------------------------||
||                                                            ||
||Ryan Roxie/Keri Kelli (clean, let ring)                     ||
||                                                            ||
||------------0------------------0----------------------------||
||---------------0--------------------------------------------||
||----0-h1------------1-1-h2----------------------------------||
||---------2------------------0-------------------------------||
||------------------------------------------------------------||
||------------------------------------------------------------||


  Slash (w/wah & slide)
||-------------------/sl17-15\sl----15-17-18-19--15/sl17~-----||
||--------12--15\sl------------sl/17--------------------------||
||--/sl12-----------------------------------------------------||
||------------------------------------------------------------||
||------------------------------------------------------------||
||------------------------------------------------------------||
||                                                            ||
||Ryan Roxie/Keri Kelli (clean, let ring)                     ||
||                                                            ||
||-----------0----------------2------------0----------------0-||
||-------------0------------------------------0---------------||
||---0-h1----------1-1-h2----------0-h1----------1-1-h2-------||
||--------2----------------0------------2----------------0----||
||------------------------------------------------------------||
||------------------------------------------------------------||


=================================================================================================
=================================================================================================
Solo: (03:48 - 04:19)
=================================================================================================

  Slash
||------------------------------------------------------------||
||------------------------------------------------------------||
||------------------------------------------------------------||
||------------------------------------------------------------||
||------------------------------------------------------------||
||------------------------------------------------------------||
||                                                            ||
||Ryan Roxie/Keri Kelli                                       ||
||                                                            ||
||---------------------------------------------_1/2_----------||
||--------------------------------------------/-----\---------||
||-------6-----------5-----------4-----------6----------------||
||----7-----7-----7-----7-----0-----0-------------------------||
||-7-----------6-----------5-----------4----------------------||
||------------------------------------------------------------||


  Slash
||------------------------------------------------------------||
||------------------------------------------------------------||
||------------------------------------------------------------||
||------------------------------------------------------------||
||------------------------------------------------------------||
||------------------------------------------------------------||
||                                                            ||
||Ryan Roxie/Keri Kelli                                       ||
||                                                            ||
||---------------------------------------------9\sl-----------||
||------------------------------------------------------------||
||-------6-----------5-----------4----------------------------||
||----7-----7-----7-----7-----0-----0-------------------------||
||-7-----------6-----------5-----------4----------------------||
||------------------------------------------------------------||


  Slash         _1/2_
||-------------/-------------------_1/2_----------------------------------------------||
||-----------13------10-10-8-5----/-----\---------------------------------------------||
||-14~-14-14-------------------8-7-------p5-7-5------_1/2_------_1/2_-----------------||
||---------------------------------------------7-5--/-----\----/----------------------||
||-------------------------------------------------6-------p3-5------p3-5-------------||
||-------------------------------------------------------------------------3~--5~-----||
||                                                                                    ||
||Ryan Roxie/Keri Kelli                                                               ||
||                                                                                    ||
||---------------------------------------------_1/2_----------------------------------||
||--------------------------------------------/-----\---------------------------------||
||-------6-----------5-----------4-----------6----------------------------------------||
||----7-----7-----7-----7-----0-----0------------------7------------------------------||
||-7-----------6-----------5-----------4-----------------7----------------------------||
||------------------------------------------------------------------------------------||


  Slash                 _   _                    _1_  _1_
||---------------------/_--/_-------------------/----/---------------------||
||--------------------7/--7/------------13-15-15---15----------------------||
||--------------------7---7--5--7p5----------------------------------------||
||-----------5(b)-7(b)------------sl/14------------------------------------||
||-3(b)-5(b)---------------------------------------------------------------||
||-------------------------------------------------------------------------||
||                                                                         ||
||Ryan Roxie/Keri Kelli                                                    ||
||                                                                         ||
||-------------------------------------------------------------------------||
||---------------------------------0---------------------------------------||
||-------6-----------5--------5----0----2----0-----------------------------||
||----7-----7-----7-----7-----5---------2----0-----------------------------||
||-7-----------6------------3----2----0------------------------------------||
||-----------------------------------------3-------------------------------||


  Slash                                           _1_~~~
||-----------------------------------------------/-------------------------||
||-15-13-15-13h15p13\sl-12-13--12h13p12p10-12--10--------------------------||
||-------------------------------------------------------------------------||
||-------------------------------------------------------------------------||
||-------------------------------------------------------------------------||
||-------------------------------------------------------------------------||
||                                                                         ||
||Ryan Roxie/Keri Kelli                                                    ||
||                                                                         ||
||---------------------------_1/2_--------------------------_1/2_----------||
||--------------------------/-----\------------------------/-----\---------||
||-------------------------3-----------------------------3-----------------||
||------------------2------------------------------2-----------------------||
||-------------------------------------------------------------------------||
||------------2------------------------------2-----------------------------||

                                                      _1_
  Slash                                              /
||-------------11-12-13-14-15-16-17-18-19-20-21-22-22---------||
||-12-13-14-15------------------------------------------------||
||------------------------------------------------------------||
||------------------------------------------------------------||
||------------------------------------------------------------||
||------------------------------------------------------------||
||                                                            ||
||Ryan Roxie/Keri Kelli                                       ||
||                                                            ||
||------------------------------------------------------------||
||------------------------------------------------------------||
||--4-4-4-4-4-4-4-4-4-4-4-4-4-4-4-4---------------------------||
||--4-4-4-4-4-4-4-4-4-4-4-4-4-4-4-4---------------------------||
||--2-2-2-2-2-2-2-2-2-2-2-2-2-2-2-2---------------------------||
||------------------------------------------------------------||


=================================================================================================
=================================================================================================
Chorus: (04:19 - 04:54)
=================================================================================================

  Slash
||-----------------------------------------------------------------------------||
||-----------------------------------------------------------------------------||
||----------------------_1/4_----------------------------------_1/4_-----------||
||----_1/4_------------/---------------------_1/4_------------/----------------||
||---/---------5-6-7--5---------------------/---------5-6-7--5-----------------||
||--3--------0----------------7-0-5-3-0----3--------0----------------7-0-5-3-0-||
||                                                                             ||
||Ryan Roxie/Keri Kelli                                                        ||
||                                                                             ||
||-----------------------------------------------------------------------------||
||----------------------_1/4_----------------------------------_1/4_-----------||
||---------------------/_1/4_---------------------------------/_1/4_-----------||
||----_1/4_-----------5/---------------------_1/4_-----------5/----------------||
||---/---------5-6-7--5---------------------/---------5-6-7--5-----------------||
||--3--------0----------------7-0-5-3-0----3--------0----------------7-0-5-3-0-||
   Shine,    if you're loaded baby         Shine any place that you're gonna be

                                                           |---w/wah----------|
  Slash                                                    |    _1_           |
||-------------------------------------------------------------/-12--12--12\sl-||
||------------------------------------------------------------/----12----------||
||----------------------_1/4_-------------------------------14---------12------||
||----_1/4_------------/---------------------_1/4_-----------------------------||
||---/---------5-6-7--5---------------------/---------5-6-7--------------------||
||--3--------0----------------7-0-5-3-0----3--------0--------------------------||
||                                                                             ||
||Ryan Roxie/Keri Kelli                                                        ||
||                                                                             ||
||-----------------------------------------------------------------------------||
||----------------------_1/4_----------------------------------_1/4_-----------||
||---------------------/_1/4_---------------------------------/_1/4_-----------||
||----_1/4_-----------5/---------------------_1/4_-----------5/----------------||
||---/---------5-6-7--5---------------------/---------5-6-7--5-----------------||
||--3--------0----------------7-0-5-3-0----3--------0----------------7-0-5-3-0-||
   shine                                                    Everybody


  Slash
||-----------------------------------------------------------------------------||
||-----------------------------------------------------------------------------||
||----------------------_1/4_----------------------------------_1/4_-----------||
||----_1/4_------------/---------------------_1/4_------------/----------------||
||---/---------5-6-7--5---------------------/---------5-6-7--5-----------------||
||--3--------0----------------7-0-5-3-0----3--------0----------------7-0-5-3-0-||
||                                                                             ||
||Ryan Roxie/Keri Kelli                                                        ||
||                                                                             ||
||-----------------------------------------------------------------------------||
||----------------------_1/4_----------------------------------_1/4_-----------||
||---------------------/_1/4_---------------------------------/_1/4_-----------||
||----_1/4_-----------5/---------------------_1/4_-----------5/----------------||
||---/---------5-6-7--5---------------------/---------5-6-7--5-----------------||
||--3--------0----------------7-0-5-3-0----3--------0----------------7-0-5-3-0-||
   Shine if you're loaded baby          Shine any place that you're gonna be


  Slash
||-----------------------------------------------------------------------------||
||-----------------------------------------------------------------------------||
||----------------------_1/4_----------------------------------_1/4_-----------||
||----_1/4_------------/---------------------_1/4_------------/----------------||
||---/---------5-6-7--5---------------------/---------5-6-7--5-----------------||
||--3--------0----------------7-0-5-3-0----3--------0----------------7-0-5-3-0-||
||                                                                             ||
||Ryan Roxie/Keri Kelli                                                        ||
||                                                                             ||
||-----------------------------------------------------------------------------||
||----------------------_1/4_----------------------------------_1/4_-----------||
||---------------------/_1/4_---------------------------------/_1/4_-----------||
||----_1/4_-----------5/---------------------_1/4_-----------5/----------------||
||---/---------5-6-7--5---------------------/---------5-6-7--5-----------------||
||--3--------0----------------7-0-5-3-0----3--------0----------------7-0-5-3-0-||
   Shine


  Slash
||---------------------------------------------------------------------||
||---------------------------------------------------------------------||
||---0---0---0---0-----------------------------------------------------||
||-----------------4--4--4--4--4-X-4--4--4---3--3--3--3--3-X-3--3--3---||
||-3---2---0-------4--4--4--4--4-X-4--4--4---3--3--3--3--3-X-3--3--3---||
||-------------3---2--2--2--2--2-X-2--2--2---1--1--1--1--1-X-1--1--1---||
||                                                                     ||
||Ryan Roxie/Keri Kelli                                                ||
||                                                                     ||
||------------------------_1/2_-------_1/2_--------_1/2_-------_1/2_---||
||-------0---------------/-----\-----/-----\------/-----\-----/-----\--||
||---5---0---2----------3-----------3------------2-----------2---------||
||---5-------2--------4----------4-------------3-----------3-----------||
||-3---2---0-----------------------------------------------------------||
||-------------3--2--2----------2-------------1-----------1------------||
  Stand beneath the sun and you too can shine

=================================================================================================
=================================================================================================
Outro: (04:54 - 05:20)
=================================================================================================

  Slash (play Outro-Solo)
||-----------------------------------------------------------------------------||
||-----------------------------------------------------------------------------||
||-----------------------------------------------------------------------------||
||---2-------------------------------------------------------------------------||
||---2-------------------------------------------------------------------------||
||---0-------------------------------------------------------------------------||
||                                                                             ||
||Ryan Roxie/Keri Kelli (heavy dist - let ring until end)                      ||
||                                                                             ||
||-----------------------------------------------------------------------------||
||-----------------------------------------------------------------------------||
||---9-------------------------------------------------------------------------||
||---9-------------------------------------------------------------------------||
||---7-------------------------------------------------------------------------||
||---0-------------------------------------------------------------------------||

Outro-Solo:

  Slash (w/wah & slide)
||--12-12-12\sl--10-10-10\sl-7-7\sl--5-5-5--||
||------------------------------------------||
||------------------------------------------||
||------------------------------------------||
||------------------------------------------||
||------------------------------------------||

  Slash (w/wah & slide)
||-4-5-7\sl-5-4\sl-2--0---------------------------------------||
||------------------------sl/7----------sl/9---\sl------------||
||------------------------sl/7----------sl/9---\sl------------||
||------------------------------------------------------------||
||------------------------------------------------------------||
||------------------------------------------------------------||
comments
We did not receive enough feedback on this tab! Please rate:
1 2 3 4 5
I want to post or [tab]
guest
You may want to rate the tab now too:
select rating
Please do not post tabs as comments. Select "correction" instead!