Oops, an error
Loading. Please wait.

Crionics Tab

ver2
ver2

Intro

Solo

Whole song

More versions @911Tabs.com
1,166 views 27 this week
no commentswrite comment
1 2 3 4 5
please rate
Autoscroll
+/-
esc
set tempo
stop
Contributor
Difficulty
intermediate
WARNING: You are trying to view
                                    content from Ultimate-Guitar.com
                                    in an unauthorized application,
                                    which is prohibited.

                                    Please use an official Ultimate
                                    Guitar Tabs application for iPhone,
                                    iPad or Android to access legitimate
                                    chords, guitar, bass, and drum tabs
                                    from Ultimate-Guitar.com database.

                                    Type "ultimate guitar tabs" in Apple
                                    App Store's or Android Market's
                                    search to find the application.
Crionics Tab by Slayer


Artist: Slayer

Song: Crionics

Album: Show No Mercy



Kerry King

     W                 
E||-------------------|
B||-------------------|
G||-------------------|
D||-------------------|
A||-------------------|
E||-------------------|


  |--3-|  |--3--|  |--3-|  |--3--|   
  Q    E  E  E  E  Q    E  E  E  E   
------------------------------------|
------------------------------------|
------------------------------------|
--4----------------4----------------|
--2----2--2--2--2--2----2--2--2--2--|
------------------------------------|


  |--3-|  |--3--|               
  Q    E  E  E  E   Q     Q     
-------------------------------|
-------------------------------|
-------------------------------|
--4-----------------5----7-----|
--2----2--2--2--2---3----5-----|
-------------------------------|


  |--3-|  |--3--|  |--3-|  |--3--|   
  Q    E  E  E  E  Q    E  E  E  E   
------------------------------------|
------------------------------------|
------------------------------------|
--4----------------4----------------|
--2----2--2--2--2--2----2--2--2--2--|
------------------------------------|


  |--3-|  |--3--|  |-3|          
  Q    E  E  E  E  E  Q    Q     
--------------------------------|
--------------------------------|
--------------------------------|
--4----------------4--2----L----|
--2----2--2--2--2--2--0----L----|
--------------------------------|


  |--3-|  |--3--|  |--3-|  |--3--|   
  Q    E  E  E  E  Q    E  E  E  E   
------------------------------------|
------------------------------------|
------------------------------------|
--4----------------4----------------|
--2----2--2--2--2--2----2--2--2--2--|
------------------------------------|


  |--3-|  |--3--|               
  Q    E  E  E  E   Q     Q     
-------------------------------|
-------------------------------|
-------------------------------|
--4-----------------5----7-----|
--2----2--2--2--2---3----5-----|
-------------------------------|


  |--3-|  |--3--|  |--3-|  |--3--|   
  Q    E  E  E  E  Q    E  E  E  E   
------------------------------------|
------------------------------------|
------------------------------------|
--4----------------4----------------|
--2----2--2--2--2--2----2--2--2--2--|
------------------------------------|


  |--3-|  |--3--|  |-3|          
  Q    E  E  E  E  E  Q    Q     
--------------------------------|
--------------------------------|
--------------------------------|
--4----------------4--2----L----|
--2----2--2--2--2--2--0----L----|
--------------------------------|

  |--3-|  |--3--|  |--3-|  |--3--|   
  Q    E  E  E  E  Q    E  E  E  E   
------------------------------------|
------------------------------------|
------------------------------------|
--4----------------4----------------|
--2----2--2--2--2--2----2--2--2--2--|
------------------------------------|


  |--3-|  |--3--|               
  Q    E  E  E  E   Q     Q     
-------------------------------|
-------------------------------|
-------------------------------|
--4-----------------5----7-----|
--2----2--2--2--2---3----5-----|
-------------------------------|


  |--3-|  |--3--|  |--3-|  |--3--|   
  Q    E  E  E  E  Q    E  E  E  E   
------------------------------------|
------------------------------------|
------------------------------------|
--4----------------4----------------|
--2----2--2--2--2--2----2--2--2--2--|
------------------------------------|


  |--3-|  |--3--|  |-3|          
  Q    E  E  E  E  E  Q    Q     
--------------------------------|
--------------------------------|
--------------------------------|
--4----------------4--2----L----|
--2----2--2--2--2--2--0----L----|
--------------------------------|

  |--3-|  |--3--|  |--3-|  |--3--|   
  Q    E  E  E  E  Q    E  E  E  E   
------------------------------------|
------------------------------------|
------------------------------------|
--4----------------4----------------|
--2----2--2--2--2--2----2--2--2--2--|
------------------------------------|


  |--3-|  |--3--|               
  Q    E  E  E  E   Q     Q     
-------------------------------|
-------------------------------|
-------------------------------|
--4-----------------5----7-----|
--2----2--2--2--2---3----5-----|
-------------------------------|


  |--3-|  |--3--|  |--3-|  |--3--|   
  Q    E  E  E  E  Q    E  E  E  E   
------------------------------------|
------------------------------------|
------------------------------------|
--4----------------4----------------|
--2----2--2--2--2--2----2--2--2--2--|
------------------------------------|


  |----3----|    |----3----|     
  Q    Q    Q    Q    Q    Q     
--------------------------------|
--------------------------------|
--------------------------------|
--4----2----2----2----2----2----|
--2----0----0----0----0----0----|
--------------------------------|


    1st verse                               
  |--3-|  |--3--|  |--3-|  |--3--|   
  Q    E  E  E  E  Q    E  E  E  E   
------------------------------------|
------------------------------------|
------------------------------------|
--4----------------4----------------|
--2----2--2--2--2--2----2--2--2--2--|
------------------------------------|


  |--3-|  |--3--|               
  Q    E  E  E  E   Q     Q     
-------------------------------|
-------------------------------|
-------------------------------|
--4-----------------5----7-----|
--2----2--2--2--2---3----5-----|
-------------------------------|


  |--3-|  |--3--|  |--3-|  |--3--|   
  Q    E  E  E  E  Q    E  E  E  E   
------------------------------------|
------------------------------------|
------------------------------------|
--4----------------4----------------|
--2----2--2--2--2--2----2--2--2--2--|
------------------------------------|


  |--3-|  |--3--|  |-3|          
  Q    E  E  E  E  E  Q    Q     
--------------------------------|
--------------------------------|
--------------------------------|
--4----------------4--2----L----|
--2----2--2--2--2--2--0----L----|
--------------------------------|


  |--3-|  |--3--|  |--3-|  |--3--|   
  Q    E  E  E  E  Q    E  E  E  E   
------------------------------------|
------------------------------------|
------------------------------------|
--4----------------4----------------|
--2----2--2--2--2--2----2--2--2--2--|
------------------------------------|


  |--3-|  |--3--|               
  Q    E  E  E  E   Q     Q     
-------------------------------|
-------------------------------|
-------------------------------|
--4-----------------5----7-----|
--2----2--2--2--2---3----5-----|
-------------------------------|


  |--3-|  |--3--|  |--3-|  |--3--|   
  Q    E  E  E  E  Q    E  E  E  E   
------------------------------------|
------------------------------------|
------------------------------------|
--4----------------4----------------|
--2----2--2--2--2--2----2--2--2--2--|
------------------------------------|


  |--3-|  |--3--|  |-3|          
  Q    E  E  E  E  E  Q    Q     
--------------------------------|
--------------------------------|
--------------------------------|
--4----------------4--2----L----|
--2----2--2--2--2--2--0----L----|
--------------------------------|


  |--3-|  |--3--|  |--3-|  |--3--|   
  Q    E  E  E  E  Q    E  E  E  E   
------------------------------------|
------------------------------------|
------------------------------------|
------------------------------------|
--5----------------5----------------|
--3----3--3--3--3--3----3--3--3--3--|


  |--3-|  |--3--|  |--3-|  |--3--|   
  Q    E  E  E  E  Q    E  E  E  E   
------------------------------------|
------------------------------------|
------------------------------------|
--2----------------2----------------|
--0----0--0--0--0--0----0--0--0--0--|
------------------------------------|



  |--3-|  |--3--|  |--3-|  |--3--|   
  Q    E  E  E  E  Q    E  E  E  E   
------------------------------------|
------------------------------------|
------------------------------------|
--4----------------4----------------|
--2----2--2--2--2--2----2--2--2--2--|
------------------------------------|


  |--3-|  |--3--|               
  Q    E  E  E  E   Q     Q     
-------------------------------|
-------------------------------|
-------------------------------|
--4-----------------5----7-----|
--2----2--2--2--2---3----5-----|
-------------------------------|


  |--3-|  |--3--|  |--3-|  |--3--|   
  Q    E  E  E  E  Q    E  E  E  E   
------------------------------------|
------------------------------------|
------------------------------------|
------------------------------------|
--5----------------5----------------|
--3----3--3--3--3--3----3--3--3--3--|


  A5                                 
  |--3-|  |--3--|  |--3-|  |--3--|   
  Q    E  E  E  E  Q    E  E  E  E   
------------------------------------|
------------------------------------|
------------------------------------|
--2----------------2----------------|
--0----0--0--0--0--0----0--0--0--0--|
------------------------------------|



  |--3-|  |--3--|  |--3-|  |--3--|   
  Q    E  E  E  E  Q    E  E  E  E   
------------------------------------|
------------------------------------|
------------------------------------|
--4----------------4----------------|
--2----2--2--2--2--2----2--2--2--2--|
------------------------------------|


  |--3-|  |--3--|               
  Q    E  E  E  E   Q     Q     
-------------------------------|
-------------------------------|
-------------------------------|
--4-----------------5----7-----|
--2----2--2--2--2---3----5-----|
-------------------------------|


  B5                                 
  |--3-|  |--3--|  |--3-|  |--3--|   
  Q    E  E  E  E  Q    E  E  E  E   
------------------------------------|
------------------------------------|
------------------------------------|
--4----------------4----------------|
--2----2--2--2--2--2----2--2--2--2--|
------------------------------------|


                    C5    D5                         
  |--3-|  |--3--|                                    
  Q    E  E  E  E   Q     Q       H        H         
-------------------------------|--------------------|
-------------------------------|--------------------|
-------------------------------|--------------------|
--4-----------------5----------|--4--------2--------|
--2----2--2--2--2---3-----5----|--2--------0--------|
-------------------------------|--------------------|


  H         H           H        H         
---------------------|--------------------|
---------------------|--------------------|
---------------------|--------------------|
------------7--------|--4--------2--------|
--5---------5--------|--2--------0--------|
--3------------------|--------------------|


  H         H         

---------------------|
---------------------|
---------------------|
------------7--------|
--5---------5--------|
--3------------------|


  |--3-|  |--3--|  |--3-|  |--3--|   
  Q    E  E  E  E  Q    E  E  E  E   
------------------------------------|
------------------------------------|
------------------------------------|
--4----------------4----------------|
--2----2--2--2--2--2----2--2--2--2--|
------------------------------------|


  |--3-|  |--3--|               
  Q    E  E  E  E   Q     Q     
-------------------------------|
-------------------------------|
-------------------------------|
--4-----------------5----7-----|
--2----2--2--2--2---3----5-----|
-------------------------------|


  |--3-|  |--3--|  |--3-|  |--3--|   
  Q    E  E  E  E  Q    E  E  E  E   
------------------------------------|
------------------------------------|
------------------------------------|
--4----------------4----------------|
--2----2--2--2--2--2----2--2--2--2--|
------------------------------------|


  |----3----|    |----3----|     
  Q    Q    Q    Q    Q    Q     
--------------------------------||
--------------------------------||
-------------------------------*||
--4----2----2----2----2----2---*||
--2----0----0----0----0----0----||
--------------------------------||



   D5                                  
   |-----3-----|     |-----3-----|     
   Q     Q     Q     Q     Q     Q     
--------------------------------------|
--------------------------------------|
--------------------------------------|
---4-----7-----7-----7-----7-----7----|
---2-----5-----5-----5-----5-----5----|
--------------------------------------|


  Interlude                                   
  |--3--|  |--3--|  |--3--|  |--3--|   
  E  E  E   E  E  E  E  E  E  E  E  E    
--------------------------------------|
--------------------------------------|
--------------------------------------|
--------------------------------------|
--------------------------------------|
--5--5--5--9--5--5--5--5--5--9--5--5--|


  |--3--|  |--3--|  |--3--|  |--3--|   
  E  E  E  E  E  E  E  E  E  E  E  E   
--------------------------------------|
--------------------------------------|
--------------------------------------|
--------------------------------------|
--------------------------------------|
--5--5--5--9--5--5--5--5--5--9--5--5--|



  |--3--|   |--3--|  |--3--|  |--3--|   
  E  E  E   E  E  E  E  E  E  E  E  E   
----------------------------------------|
----------------------------------------|
----------------------------------------|
----------------------------------------|
----------------------------------------|
--7--7--7--11--7--7--7--7--7--11--7--7--|


  |--3--|   |--3--|  |--3--|  |--3--|   
  E  E  E   E  E  E  E  E  E  E  E  E   
----------------------------------------|
----------------------------------------|
----------------------------------------|
----------------------------------------|
----------------------------------------|
--7--7--7--11--7--7--7--7--7--11--7--7--|


  |--3--|  |--3--|  |--3--|  |--3--|   
  E  E  E  E  E  E  E  E  E  E  E  E   
--------------------------------------|
--------------------------------------|
--------------------------------------|
--------------------------------------|
--------------------------------------|
--3--3--3--7--3--3--3--3--3--7--3--3--|


  |--3--|  |--3--|  |--3--|  |--3--|   
  E  E  E  E  E  E  E  E  E  E  E  E   
--------------------------------------|
--------------------------------------|
--------------------------------------|
--------------------------------------|
--------------------------------------|
--3--3--3--7--3--3--3--3--3--7--3--3--|


  |--3--|  |--3--|  |--3--|  |--3--|   
  E  E  E  E  E  E  E  E  E  E  E  E   
--------------------------------------|
--------------------------------------|
--------------------------------------|
--------------------------------------|
--------------------------------------|
--5--5--5--9--5--5--5--5--5--9--5--5--|


  |--3--|  |--3--|  |--3--|  |--3--|   
  E  E  E  E  E  E  E  E  E  E  E  E   
--------------------------------------|
--------------------------------------|
--------------------------------------|
--------------------------------------|
--------------------------------------|
--5--5--5--9--5--5--5--5--5--9--5--5--|


    |--3--|       |--3--|        
    E  E  E  Q    E  E  E  Q     




|-------------------------------|
|-------------------------------|
|*-----------7-------------7----|
|*-----------7-------------7----|
|-------------------------------|
|---7--7--7-------7--7--7-------|


  |--3--|                    
  E  E  E  E  E  H         4x
---------------------------||
---------------------------||
-----------7--9--L--------*||
-----------7--9--L--------*||
---------------------------||
--7--7--7------------------||


   |--3--|  |--3--|  |--3--|  |--3--|   
   E  E  E  E  E  E  E  E  E  E  E  E   
-----------------------------------------|
-----------------------------------------|
---5--5--5--9--5--5--5--5--5--9--5--5----|
-----------------------------------------|
-----------------------------------------|
-----------------------------------------|


   |--3--|  |--3--|  |--3--|  |--3--|   
   E  E  E  E  E  E  E  E  E  E  E  E   
-----------------------------------------|
-----------------------------------------|
---5--5--5--9--5--5--5--5--5--9--5--5----|
-----------------------------------------|
-----------------------------------------|
-----------------------------------------|



   |--3--|   |--3--|  |--3--|   |--3--|   
   E  E  E   E  E  E  E  E  E   E  E  E   
------------------------------------------|
------------------------------------------|
---7--7--7--11--7--7--7--7--7--11--7--7---|
------------------------------------------|
------------------------------------------|
------------------------------------------|


   |--3--|   |--3--|  |--3--|   |--3--|   
   E  E  E   E  E  E  E  E  E   E  E  E   
------------------------------------------|
------------------------------------------|
---7--7--7--11--7--7--7--7--7--11--7--7---|
------------------------------------------|
------------------------------------------|
------------------------------------------|



    |---3---|   |---3---|   |---3---|   |---3---|   
    E   E   E   E   E   E   E   E   E   E   E   E   
----------------------------------------------------|
----------------------------------------------------|
---12--12--12--16--12--12--12--12--12--16--12--12---|
----------------------------------------------------|
----------------------------------------------------|
----------------------------------------------------|



    |---3---|   |---3---|   |---3---|   |---3---|   
    E   E   E   E   E   E   E   E   E   E   E   E   
----------------------------------------------------|
----------------------------------------------------|
---12--12--12--16--12--12--12--12--12--16--12--12---|
----------------------------------------------------|
----------------------------------------------------|
----------------------------------------------------|


   |--3--|   |--3--|  |--3--|   |--3--|   
   E  E  E   E  E  E  E  E  E   E  E  E   
------------------------------------------|
------------------------------------------|
---9--9--9--13--9--9--9--9--9--13--9--9---|
------------------------------------------|
------------------------------------------|
------------------------------------------|


   |--3--|   |--3--|  |--3--|   |--3--|   
   E  E  E   E  E  E  E  E  E   E  E  E   
------------------------------------------|
------------------------------------------|
---9--9--9--13--9--9--9--9--9--13--9--9---|
------------------------------------------|
------------------------------------------|
------------------------------------------|


  B5                                 

  |--3-|  |--3--|  |--3-|  |--3--|   
  Q    E  E  E  E  Q    E  E  E  E   
------------------------------------|
------------------------------------|
------------------------------------|
--4----------------4----------------|
--2----2--2--2--2--2----2--2--2--2--|
------------------------------------|


  |--3-|  |--3--|               
  Q    E  E  E  E   Q     Q     
-------------------------------|
-------------------------------|
-------------------------------|
--4-----------------5----7-----|
--2----2--2--2--2---3----5-----|
-------------------------------|


  |--3-|  |--3--|  |--3-|  |--3--|   
  Q    E  E  E  E  Q    E  E  E  E   
------------------------------------|
------------------------------------|
------------------------------------|
--4----------------4----------------|
--2----2--2--2--2--2----2--2--2--2--|
------------------------------------|


  |----3----|    |----3----|     
  Q    Q    Q    Q    Q    Q     
--------------------------------|
--------------------------------|
--------------------------------|
--4----2----2----2----2----2----|
--2----0----0----0----0----0----|
--------------------------------|



    E  S S E  S S E  S S E  E   
|------------------------------|
|------------------------------|
|*-----------------------------|
|*--4------4------4------4--2--|
|---2--2-2-2--2-2-2--2-2-2--0--|
|------------------------------|



    E  S S E  S S E  S S E  E   
------------------------------|
------------------------------|
------------------------------|
---4------4------4------4--2--|
---2--2-2-2--2-2-2--2-2-2--0--|
------------------------------|


  G5                      F#5  
  E  S S E  S S E  S S E  E    
------------------------------|
------------------------------|
------------------------------|
------------------------------|
--5------5------5------5--4---|
--3--3-3-3--3-3-3--3-3-3--2---|


  G5                      A5    
  E  S S E  S S E  S S E  E     
------------------------------||
------------------------------||
-----------------------------*||
--------------------------2--*||
--5------5------5------5--0---||
--3--3-3-3--3-3-3--3-3-3------||


  E  S S S S S S S S S S S S S S  
---------------------------------|
---------------------------------|
-----4-5-4-----------------------|
-----------5-4---4-5-4-5-4-------|
---------------7-----------7-5-4-|
--7------------------------------|


  E  S S S S S S S S S S S S S S  
---------------------------------|
---------------------------------|
-----4-5-4-----------------------|
-----------5-4---4-5-4-5-4-------|
---------------7-----------7-5-4-|
--7------------------------------|


  E  S S S S S S S S S S S S S S  
---------------------------------|
---------------------------------|
-----4-5-4-----------------------|
-----------5-4---4-5-4-5-4-------|
---------------7-----------7-5-4-|
--7------------------------------|


  E  S S S S S S S S S S S S S S  
---------------------------------|
---------------------------------|
-----4-5-4-----------------------|
-----------5-4---4-5-4-5-4-------|
---------------7-----------7-5-4-|
--7------------------------------|


    E  S S S S S S S S S S S S S S  
|----------------------------------|
|----------------------------------|
|*-----4-5-4-----------------------|
|*-----------5-4---4-5-4-5-4-------|
|----------------7-----------7-5-4-|
|---7------------------------------|


  E  S S S S S S S S S S S S S S  

---------------------------------|
---------------------------------|
-----4-5-4-----------------------|
-----------5-4---4-5-4-5-4-------|
---------------7-----------7-5-4-|
--7------------------------------|


  E  S S S S S S S S S S S S S S  
---------------------------------|
---------------------------------|
-----4-5-4-----------------------|
-----------5-4---4-5-4-5-4-------|
---------------7-----------7-5-4-|
--7------------------------------|


  E  S S S S S S S S S S S S S S    
----------------------------------||
----------------------------------||
-----4-5-4-----------------------*||
-----------5-4---4-5-4-5-4-------*||
---------------7-----------7-5-4--||
--7-------------------------------||


                             |-3-|  
  E  S S S S S S S S S S S S S S S  
-----------------------------------|
-------------------------------7-8-|
-----4-5-4-------------------9-----|
-----------5-4---4-5-4-5-4---------|
---------------7-----------7-------|
--7--------------------------------|



|------------------------------|
|------------------------------|
|------------------------------|
|---4------4------4------4--2--|
|---2--2-2-2--2-2-2--2-2-2--0--|
|------------------------------|



    E  S S E  S S E  S S E  E   
------------------------------|
------------------------------|
------------------------------|
---4------4------4------4--2--|
---2--2-2-2--2-2-2--2-2-2--0--|
------------------------------|


  G5                      F#5  
  E  S S E  S S E  S S E  E    
------------------------------|
------------------------------|
------------------------------|
------------------------------|
--5------5------5------5--4---|
--3--3-3-3--3-3-3--3-3-3--2---|


  G5                      A5    
  E  S S E  S S E  S S E  E     
------------------------------||
------------------------------||
------------------------------||
--------------------------2---||
--5------5------5------5--0---||
--3--3-3-3--3-3-3--3-3-3------||


|------------------------------|
|------------------------------|
|------------------------------|
|---4------4------4------4--2--|
|---2--2-2-2--2-2-2--2-2-2--0--|
|------------------------------|



    E  S S E  S S E  S S E  E   
------------------------------|
------------------------------|
------------------------------|
---4------4------4------4--2--|
---2--2-2-2--2-2-2--2-2-2--0--|
------------------------------|


  G5                      F#5  
  E  S S E  S S E  S S E  E    
------------------------------|
------------------------------|
------------------------------|
------------------------------|
--5------5------5------5--4---|
--3--3-3-3--3-3-3--3-3-3--2---|


  G5                      A5    
  E  S S E  S S E  S S E  E     
------------------------------||
------------------------------||
------------------------------||
--------------------------2---||
--5------5------5------5--0---||
--3--3-3-3--3-3-3--3-3-3------||


 Q     Q     Q     Q      
--------------------------|
-------15b---------15b----|
--------------------------|
--------------------------|
--------------------------|
--------------------------|



  Q     E    S   S   Q    S     S  S  
-------------------------------12-15-|
--L----15b--15b-15br-L----L----------|
-------------------------------------|
-------------------------------------|
-------------------------------------|
-------------------------------------|


   E    S   S  S  S   S   S   Q.     S   S  
--15b--15b-15b-L-15b-15b-15b-15br--------12-|
-------------------------------------15-----|
--------------------------------------------|
--------------------------------------------|
--------------------------------------------|
--------------------------------------------|


   S   S  S   S  S   S  S   S  S   S  S   S  S   S  S   
--17p-12-15p-12--------14p-12-17p-12-15p-12--------14p-1
----------------15p-12----------------------15p-12------
--------------------------------------------------------
--------------------------------------------------------
--------------------------------------------------------
--------------------------------------------------------


   S   S  S   S  S   S  S   S  Q      Q      
--17p-12-15p-12--------14p-12---------------|
----------------15p-12--------15b----15b----|
--------------------------------------------|
--------------------------------------------|
--------------------------------------------|
--------------------------------------------|


   S   S  S  S   S  S  S   S  S  S   S  S  S   S  S   S 
--15p-12----14p-12----15p-12----14p-12----15p-12-14p-12-
---------12--------12--------12--------12---------------
--------------------------------------------------------
--------------------------------------------------------
--------------------------------------------------------
--------------------------------------------------------


   S   S  S  S   S  S  S   S  S  S   S  S  T   S. T   S.
--15p-12----14p-12----15p-12----14p-12----15p-12-14p-12-
---------12--------12--------12--------12---------------
--------------------------------------------------------
--------------------------------------------------------
--------------------------------------------------------
--------------------------------------------------------


   |--3--|  |--3--|  |--3--|  |--3--|  |--3--|  |--3--| 
   T  T  T  T  T  T  T  T  T  T  T  T  T  T  T  T  T  T 
--14-14-14-14-14-14-14-14-15-15-15-15-15-15-15-15-17-17-
--------------------------------------------------------
--------------------------------------------------------
--------------------------------------------------------
--------------------------------------------------------
--------------------------------------------------------


   Q      H.              
--22b----22br------------|
-------------------------|
-------------------------|
-------------------------|
-------------------------|
-------------------------|


    E  S S S S S S S S S S S S S S  
|----------------------------------|
|----------------------------------|
|------4-5-4-----------------------|
|------------5-4---4-5-4-5-4-------|
|----------------7-----------7-5-4-|
|---7------------------------------|


  E  S S S S S S S S S S S S S S  
---------------------------------|
---------------------------------|
-----4-5-4-----------------------|
-----------5-4---4-5-4-5-4-------|
---------------7-----------7-5-4-|
--7------------------------------|


  E  S S S S S S S S S S S S S S  
---------------------------------|
---------------------------------|
-----4-5-4-----------------------|
-----------5-4---4-5-4-5-4-------|
---------------7-----------7-5-4-|
--7------------------------------|


  E  S S S S S S S S S S S S S S    
----------------------------------||
----------------------------------||
-----4-5-4------------------------||
-----------5-4---4-5-4-5-4--------||
---------------7-----------7-5-4--||
--7-------------------------------||


  Q    Q    H           W                 
---------------------|-------------------|
---------------------|-------------------|
---------------------|-------------------|
--4------------------|-------------------|
--2------------------|-------------------|
---------------------|-------------------|


-------------------||
-------------------||
-------------------||
-------------------||
-------------------||
-------------------||

Jeff Hanneman

     W                 


E||-------------------|
B||-------------------|
G||-------------------|
D||-------------------|
A||-------------------|
E||-------------------|


  |--3-|  |--3--|  |--3-|  |--3--|   
  Q    E  E  E  E  Q    E  E  E  E   
------------------------------------|
------------------------------------|
------------------------------------|
--4----------------4----------------|
--2----2--2--2--2--2----2--2--2--2--|
------------------------------------|


  |--3-|  |--3--|               
  Q    E  E  E  E   Q     Q     
-------------------------------|
-------------------------------|
-------------------------------|
--4-----------------5----7-----|
--2----2--2--2--2---3----5-----|
-------------------------------|


  |--3-|  |--3--|  |--3-|  |--3--|   
  Q    E  E  E  E  Q    E  E  E  E   
------------------------------------|
------------------------------------|
------------------------------------|
--4----------------4----------------|
--2----2--2--2--2--2----2--2--2--2--|
------------------------------------|


  |--3-|  |--3--|  |-3|          
  Q    E  E  E  E  E  Q    Q     
--------------------------------|
--------------------------------|
--------------------------------|
--4----------------4--2----L----|
--2----2--2--2--2--2--0----L----|
--------------------------------|


  |--3-|  |--3--|  |--3-|  |--3--|   
  Q    E  E  E  E  Q    E  E  E  E   
------------------------------------|
------------------------------------|
------------------------------------|
--4----------------4----------------|
--2----2--2--2--2--2----2--2--2--2--|
------------------------------------|


  |--3-|  |--3--|               
  Q    E  E  E  E   Q     Q     
-------------------------------|
-------------------------------|
-------------------------------|
--4-----------------5----7-----|
--2----2--2--2--2---3----5-----|
-------------------------------|


  |--3-|  |--3--|  |--3-|  |--3--|   
  Q    E  E  E  E  Q    E  E  E  E   
------------------------------------|
------------------------------------|
------------------------------------|
--4----------------4----------------|
--2----2--2--2--2--2----2--2--2--2--|
------------------------------------|


  |--3-|  |--3--|  |-3|          
  Q    E  E  E  E  E  Q    Q     
--------------------------------|
--------------------------------|
--------------------------------|
--4----------------4--2----L----|
--2----2--2--2--2--2--0----L----|
--------------------------------|

  |--3-|  |--3--|  |--3-|  |--3--|   
  Q    E  E  E  E  Q    E  E  E  E   
------------------------------------|
------------------------------------|
------------------------------------|
--4----------------4----------------|
--2----2--2--2--2--2----2--2--2--2--|
------------------------------------|


  |--3-|  |--3--|               
  Q    E  E  E  E   Q     Q     
-------------------------------|
-------------------------------|
-------------------------------|
--4-----------------5----7-----|
--2----2--2--2--2---3----5-----|
-------------------------------|


  |--3-|  |--3--|  |--3-|  |--3--|   
  Q    E  E  E  E  Q    E  E  E  E   
------------------------------------|
------------------------------------|
------------------------------------|
--4----------------4----------------|
--2----2--2--2--2--2----2--2--2--2--|
------------------------------------|


  |--3-|  |--3--|  |-3|          
  Q    E  E  E  E  E  Q    Q     
--------------------------------|
--------------------------------|
--------------------------------|
--4----------------4--2----L----|
--2----2--2--2--2--2--0----L----|
--------------------------------|

  |--3-|  |--3--|  |--3-|  |--3--|   
  Q    E  E  E  E  Q    E  E  E  E   
------------------------------------|
------------------------------------|
------------------------------------|
--4----------------4----------------|
--2----2--2--2--2--2----2--2--2--2--|
------------------------------------|


  |--3-|  |--3--|               
  Q    E  E  E  E   Q     Q     
-------------------------------|
-------------------------------|
-------------------------------|
--4-----------------5----7-----|
--2----2--2--2--2---3----5-----|
-------------------------------|


  |--3-|  |--3--|  |--3-|  |--3--|   
  Q    E  E  E  E  Q    E  E  E  E   
------------------------------------|
------------------------------------|
------------------------------------|
--4----------------4----------------|
--2----2--2--2--2--2----2--2--2--2--|
------------------------------------|


  |----3----|    |----3----|     
  Q    Q    Q    Q    Q    Q     
--------------------------------|
--------------------------------|
--------------------------------|
--4----2----2----2----2----2----|
--2----0----0----0----0----0----|
--------------------------------|


    1st verse                               
  |--3-|  |--3--|  |--3-|  |--3--|   
  Q    E  E  E  E  Q    E  E  E  E   
------------------------------------|
------------------------------------|
------------------------------------|
--4----------------4----------------|
--2----2--2--2--2--2----2--2--2--2--|
------------------------------------|


  |--3-|  |--3--|               
  Q    E  E  E  E   Q     Q     
-------------------------------|
-------------------------------|
-------------------------------|
--4-----------------5----7-----|
--2----2--2--2--2---3----5-----|
-------------------------------|


  |--3-|  |--3--|  |--3-|  |--3--|   
  Q    E  E  E  E  Q    E  E  E  E   
------------------------------------|
------------------------------------|
------------------------------------|
--4----------------4----------------|
--2----2--2--2--2--2----2--2--2--2--|
------------------------------------|


  |--3-|  |--3--|  |-3|          
  Q    E  E  E  E  E  Q    Q     
--------------------------------|
--------------------------------|
--------------------------------|
--4----------------4--2----L----|
--2----2--2--2--2--2--0----L----|
--------------------------------|


  |--3-|  |--3--|  |--3-|  |--3--|   
  Q    E  E  E  E  Q    E  E  E  E   
------------------------------------|
------------------------------------|
------------------------------------|
--4----------------4----------------|
--2----2--2--2--2--2----2--2--2--2--|
------------------------------------|


  |--3-|  |--3--|               
  Q    E  E  E  E   Q     Q     
-------------------------------|
-------------------------------|
-------------------------------|
--4-----------------5----7-----|
--2----2--2--2--2---3----5-----|
-------------------------------|


  |--3-|  |--3--|  |--3-|  |--3--|   
  Q    E  E  E  E  Q    E  E  E  E   
------------------------------------|
------------------------------------|
------------------------------------|
--4----------------4----------------|
--2----2--2--2--2--2----2--2--2--2--|
------------------------------------|


  |--3-|  |--3--|  |-3|          
  Q    E  E  E  E  E  Q    Q     
--------------------------------|
--------------------------------|
--------------------------------|
--4----------------4--2----L----|
--2----2--2--2--2--2--0----L----|
--------------------------------|


  |--3-|  |--3--|  |--3-|  |--3--|   
  Q    E  E  E  E  Q    E  E  E  E   
------------------------------------|
------------------------------------|
------------------------------------|
------------------------------------|
--5----------------5----------------|
--3----3--3--3--3--3----3--3--3--3--|


  |--3-|  |--3--|  |--3-|  |--3--|   
  Q    E  E  E  E  Q    E  E  E  E   
------------------------------------|
------------------------------------|
------------------------------------|
--2----------------2----------------|
--0----0--0--0--0--0----0--0--0--0--|
------------------------------------|



  |--3-|  |--3--|  |--3-|  |--3--|   
  Q    E  E  E  E  Q    E  E  E  E   
------------------------------------|
------------------------------------|
------------------------------------|
--4----------------4----------------|
--2----2--2--2--2--2----2--2--2--2--|
------------------------------------|


  |--3-|  |--3--|               
  Q    E  E  E  E   Q     Q     
-------------------------------|
-------------------------------|
-------------------------------|
--4-----------------5----7-----|
--2----2--2--2--2---3----5-----|
-------------------------------|


  |--3-|  |--3--|  |--3-|  |--3--|   
  Q    E  E  E  E  Q    E  E  E  E   
------------------------------------|
------------------------------------|
------------------------------------|
------------------------------------|
--5----------------5----------------|
--3----3--3--3--3--3----3--3--3--3--|


  A5                                 
  |--3-|  |--3--|  |--3-|  |--3--|   
  Q    E  E  E  E  Q    E  E  E  E   
------------------------------------|
------------------------------------|
------------------------------------|
--2----------------2----------------|
--0----0--0--0--0--0----0--0--0--0--|
------------------------------------|



  |--3-|  |--3--|  |--3-|  |--3--|   
  Q    E  E  E  E  Q    E  E  E  E   
------------------------------------|
------------------------------------|
------------------------------------|
--4----------------4----------------|
--2----2--2--2--2--2----2--2--2--2--|
------------------------------------|


  |--3-|  |--3--|               
  Q    E  E  E  E   Q     Q     
-------------------------------|
-------------------------------|
-------------------------------|
--4-----------------5----7-----|
--2----2--2--2--2---3----5-----|
-------------------------------|


  B5                                 
  |--3-|  |--3--|  |--3-|  |--3--|   
  Q    E  E  E  E  Q    E  E  E  E   
------------------------------------|
------------------------------------|
------------------------------------|
--4----------------4----------------|
--2----2--2--2--2--2----2--2--2--2--|
------------------------------------|


                    C5    D5                         
  |--3-|  |--3--|                                    
  Q    E  E  E  E   Q     Q       H        H         
-------------------------------|--------------------|
-------------------------------|--------------------|
-------------------------------|--------------------|
--4-----------------5----------|--4--------2--------|
--2----2--2--2--2---3-----5----|--2--------0--------|
-------------------------------|--------------------|


  H         H           H        H         
---------------------|--------------------|
---------------------|--------------------|
---------------------|--------------------|
------------7--------|--4--------2--------|
--5---------5--------|--2--------0--------|
--3------------------|--------------------|


  H         H         

---------------------|
---------------------|
---------------------|
------------7--------|
--5---------5--------|
--3------------------|


  |--3-|  |--3--|  |--3-|  |--3--|   
  Q    E  E  E  E  Q    E  E  E  E   
------------------------------------|
------------------------------------|
------------------------------------|
--4----------------4----------------|
--2----2--2--2--2--2----2--2--2--2--|
------------------------------------|


  |--3-|  |--3--|               
  Q    E  E  E  E   Q     Q     
-------------------------------|
-------------------------------|
-------------------------------|
--4-----------------5----7-----|
--2----2--2--2--2---3----5-----|
-------------------------------|


  |--3-|  |--3--|  |--3-|  |--3--|   
  Q    E  E  E  E  Q    E  E  E  E   
------------------------------------|
------------------------------------|
------------------------------------|
--4----------------4----------------|
--2----2--2--2--2--2----2--2--2--2--|
------------------------------------|


  |----3----|    |----3----|     
  Q    Q    Q    Q    Q    Q     
--------------------------------||
--------------------------------||
-------------------------------*||
--4----2----2----2----2----2---*||
--2----0----0----0----0----0----||
--------------------------------||



   D5                                  
   |-----3-----|     |-----3-----|     
   Q     Q     Q     Q     Q     Q     
--------------------------------------|
--------------------------------------|
--------------------------------------|
---4-----7-----7-----7-----7-----7----|
---2-----5-----5-----5-----5-----5----|
--------------------------------------|



  Interlude                                   
  |--3--|  |--3--|  |--3--|  |--3--|   
  E  E  E   E  E  E  E  E  E  E  E  E    
--------------------------------------|
--------------------------------------|
--------------------------------------|
--------------------------------------|
--------------------------------------|
--5--5--5--9--5--5--5--5--5--9--5--5--|


  |--3--|  |--3--|  |--3--|  |--3--|   
  E  E  E  E  E  E  E  E  E  E  E  E   
--------------------------------------|
--------------------------------------|
--------------------------------------|
--------------------------------------|
--------------------------------------|
--5--5--5--9--5--5--5--5--5--9--5--5--|



  |--3--|   |--3--|  |--3--|  |--3--|   
  E  E  E   E  E  E  E  E  E  E  E  E   
----------------------------------------|
----------------------------------------|
----------------------------------------|
----------------------------------------|
----------------------------------------|
--7--7--7--11--7--7--7--7--7--11--7--7--|


  |--3--|   |--3--|  |--3--|  |--3--|   
  E  E  E   E  E  E  E  E  E  E  E  E   
----------------------------------------|
----------------------------------------|
----------------------------------------|
----------------------------------------|
----------------------------------------|
--7--7--7--11--7--7--7--7--7--11--7--7--|


  |--3--|  |--3--|  |--3--|  |--3--|   
  E  E  E  E  E  E  E  E  E  E  E  E   
--------------------------------------|
--------------------------------------|
--------------------------------------|
--------------------------------------|
--------------------------------------|
--3--3--3--7--3--3--3--3--3--7--3--3--|


  |--3--|  |--3--|  |--3--|  |--3--|   
  E  E  E  E  E  E  E  E  E  E  E  E   
--------------------------------------|
--------------------------------------|
--------------------------------------|
--------------------------------------|
--------------------------------------|
--3--3--3--7--3--3--3--3--3--7--3--3--|


  |--3--|  |--3--|  |--3--|  |--3--|   
  E  E  E  E  E  E  E  E  E  E  E  E   
--------------------------------------|
--------------------------------------|
--------------------------------------|
--------------------------------------|
--------------------------------------|
--5--5--5--9--5--5--5--5--5--9--5--5--|


  |--3--|  |--3--|  |--3--|  |--3--|   
  E  E  E  E  E  E  E  E  E  E  E  E   
--------------------------------------|
--------------------------------------|
--------------------------------------|
--------------------------------------|
--------------------------------------|
--5--5--5--9--5--5--5--5--5--9--5--5--|


    |--3--|       |--3--|        
    E  E  E  Q    E  E  E  Q     
|-------------------------------|
|-------------------------------|
|*-----------7-------------7----|
|*-----------7-------------7----|
|-------------------------------|
|---7--7--7-------7--7--7-------|


  |--3--|                    
  E  E  E  E  E  H         4x




---------------------------||
---------------------------||
-----------7--9--L--------*||
-----------7--9--L--------*||
---------------------------||
--7--7--7------------------||


  |--3--|   |--3--|  |--3--|  |--3--|   
  E  E  E   E  E  E  E  E  E  E  E  E   
----------------------------------------|
----------------------------------------|
----------------------------------------|
--7--7--7--11--7--7--7--7--7--11--7--7--|
----------------------------------------|
----------------------------------------|


  |--3--|   |--3--|  |--3--|  |--3--|   
  E  E  E   E  E  E  E  E  E  E  E  E   
----------------------------------------|
----------------------------------------|
----------------------------------------|
--7--7--7--11--7--7--7--7--7--11--7--7--|
----------------------------------------|
----------------------------------------|


  |--3--|   |--3--|  |--3--|  |--3--|   
  E  E  E   E  E  E  E  E  E  E  E  E   
----------------------------------------|
----------------------------------------|
----------------------------------------|
--9--9--9--13--9--9--9--9--9--13--9--9--|
----------------------------------------|
----------------------------------------|

  |--3--|   |--3--|  |--3--|  |--3--|   
  E  E  E   E  E  E  E  E  E  E  E  E   
----------------------------------------|
----------------------------------------|
----------------------------------------|
--9--9--9--13--9--9--9--9--9--13--9--9--|
----------------------------------------|
----------------------------------------|


  |--3--|  |--3--|  |--3--|  |--3--|   
  E  E  E  E  E  E  E  E  E  E  E  E   
--------------------------------------|
--------------------------------------|
--------------------------------------|
--5--5--5--9--5--5--5--5--5--9--5--5--|
--------------------------------------|
--------------------------------------|


  |--3--|  |--3--|  |--3--|  |--3--|   
  E  E  E  E  E  E  E  E  E  E  E  E   
--------------------------------------|
--------------------------------------|
--------------------------------------|
--5--5--5--9--5--5--5--5--5--9--5--5--|
--------------------------------------|
--------------------------------------|


  |--3--|   |--3--|  |--3--|  |--3--|   
  E  E  E   E  E  E  E  E  E  E  E  E   
----------------------------------------|
----------------------------------------|
----------------------------------------|
--7--7--7--11--7--7--7--7--7--11--7--7--|
----------------------------------------|
----------------------------------------|


  |--3--|   |--3--|  |--3--|  |--3--|   
  E  E  E   E  E  E  E  E  E  E  E  E   
----------------------------------------|
----------------------------------------|
----------------------------------------|
--7--7--7--11--7--7--7--7--7--11--7--7--|
----------------------------------------|
----------------------------------------|



  B5                                 

  |--3-|  |--3--|  |--3-|  |--3--|   
  Q    E  E  E  E  Q    E  E  E  E   
------------------------------------|
------------------------------------|
------------------------------------|
--4----------------4----------------|
--2----2--2--2--2--2----2--2--2--2--|
------------------------------------|


  |--3-|  |--3--|               
  Q    E  E  E  E   Q     Q     
-------------------------------|
-------------------------------|
-------------------------------|
--4-----------------5----7-----|
--2----2--2--2--2---3----5-----|
-------------------------------|


  |--3-|  |--3--|  |--3-|  |--3--|   
  Q    E  E  E  E  Q    E  E  E  E   
------------------------------------|
------------------------------------|
------------------------------------|
--4----------------4----------------|
--2----2--2--2--2--2----2--2--2--2--|
------------------------------------|


  |----3----|    |----3----|     
  Q    Q    Q    Q    Q    Q     
--------------------------------|
--------------------------------|
--------------------------------|
--4----2----2----2----2----2----|
--2----0----0----0----0----0----|
--------------------------------|


|------------------------------|
|------------------------------|
|*-----------------------------|
|*--4------4------4------4--2--|
|---2--2-2-2--2-2-2--2-2-2--0--|
|------------------------------|



    E  S S E  S S E  S S E  E   
------------------------------|
------------------------------|
------------------------------|
---4------4------4------4--2--|
---2--2-2-2--2-2-2--2-2-2--0--|
------------------------------|


  G5                      F#5  
  E  S S E  S S E  S S E  E    
------------------------------|
------------------------------|
------------------------------|
------------------------------|
--5------5------5------5--4---|
--3--3-3-3--3-3-3--3-3-3--2---|


  G5                      A5    
  E  S S E  S S E  S S E  E     
------------------------------||
------------------------------||
-----------------------------*||
--------------------------2--*||
--5------5------5------5--0---||
--3--3-3-3--3-3-3--3-3-3------||

  G5                      A5                            
   S S Q    H        E   
|-----------------------|
|-----------------------|
|-----------------------|
|--4-----------------2--|
|--2-----------------0--|
|-----------------------|


  S S Q    H        E     S S Q    H        E   
-----------------------|-----------------------|
-----------------------|-----------------------|
-----------------------|-----------------------|
--4-----------------2--|-----------------------|
--2-----------------0--|--5-----------------4--|
-----------------------|--3-----------------2--|


  S S Q    H        E     
-----------------------|
-----------------------|
-----------------------|
-----------------------|
--5--------------------|
--3--------------------|


    E  S S E  S S E  S S E  E 
|------------------------------|
|------------------------------|
|*-----------------------------|
|*--4------4------4------4--2--|
|---2--2-2-2--2-2-2--2-2-2--0--|
|------------------------------|



    E  S S E  S S E  S S E  E   
------------------------------|
------------------------------|
------------------------------|
---4------4------4------4--2--|
---2--2-2-2--2-2-2--2-2-2--0--|
------------------------------|


  G5                      F#5  
  E  S S E  S S E  S S E  E    
------------------------------|
------------------------------|
------------------------------|
------------------------------|
--5------5------5------5--4---|
--3--3-3-3--3-3-3--3-3-3--2---|


  G5                      A5    
  E  S S E  S S E  S S E  E     
------------------------------||
------------------------------||
-----------------------------*||
--------------------------2--*||
--5------5------5------5--0---||
--3--3-3-3--3-3-3--3-3-3------||

   

    |-6-| |-6-| |-6-| |-6-| |-6-| |-6-| |-6-| |-6-|  
    S S S S S S S S S S S S S S S S S S S S S S S S  
----5-3-2-0-2-3-5-3-2-0-2-3-5-3-2-0-2-3-5-3-2-0-2-3---|
------------------------------------------------------|
------------------------------------------------------|
------------------------------------------------------|
------------------------------------------------------|
------------------------------------------------------|


   |-6-| |-6-| |-6-| |-6-| |-3-|            
   S S S S S S S S S S S S S S S    S S    
---5-3-2-0-2-3-5-3-2-0-2-3-5-3-2---------|
------------------------------------5-3--|
-----------------------------------------|
-----------------------------------------|
-----------------------------------------|
-----------------------------------------|


                          |-3|     |-3|                 
  H        Q.       E     E  S S S E  S S S Q.     S S  
-----------------------|-------------------------------|
-----------------------|-------------------------------|
--4--------4br------4--|--7-6-4---5-4----------------7-|
-----------------------|--------------7-5-L--------9---|
-----------------------|-------------------------------|
-----------------------|-------------------------------|


  E.   S  E  E    S S S S Q     
----------------------------------|
----------------------------------|
--9b---9b---9b--9br--L-L-7---7----|
---------------------------9------|
----------------------------------|
----------------------------------|



   S  S  E   S  S  E   E  Q     E   
-----------------------------------|
-------------------------------10--|
--12-11----------------------------|
--------12--12-11-----11--L--------|
------------------12---------------|
-----------------------------------|


   S   S E   S   S E   S   S E   E    E    
------------------------------------------|
--10br-L-L--12br-L-L--13br-L-L--13b--15b--|
------------------------------------------|
------------------------------------------|
------------------------------------------|
------------------------------------------|


   Q      Q     S  S  S  S  Q     
---------------------------------|
--17b----17b----L-15-17-15-------|
---------------------------16----|
---------------------------------|
---------------------------------|
---------------------------------|

    E  S S E  S S E  S S E  E 
|------------------------------|
|------------------------------|
|------------------------------|
|---4------4------4------4--2--|
|---2--2-2-2--2-2-2--2-2-2--0--|
|------------------------------|



    E  S S E  S S E  S S E  E   
------------------------------|
------------------------------|
------------------------------|
---4------4------4------4--2--|
---2--2-2-2--2-2-2--2-2-2--0--|
------------------------------|


  G5                      F#5  
  E  S S E  S S E  S S E  E    
------------------------------|
------------------------------|
------------------------------|
------------------------------|
--5------5------5------5--4---|
--3--3-3-3--3-3-3--3-3-3--2---|


  G5                      A5    
  E  S S E  S S E  S S E  E     
------------------------------||
------------------------------||
------------------------------||
--------------------------2---||
--5------5------5------5--0---||
--3--3-3-3--3-3-3--3-3-3------||

    E  S S E  S S E  S S E  E 
|------------------------------|
|------------------------------|
|------------------------------|
|---4------4------4------4--2--|
|---2--2-2-2--2-2-2--2-2-2--0--|
|------------------------------|



    E  S S E  S S E  S S E  E   
------------------------------|
------------------------------|
------------------------------|
---4------4------4------4--2--|
---2--2-2-2--2-2-2--2-2-2--0--|
------------------------------|


  G5                      F#5  
  E  S S E  S S E  S S E  E    
------------------------------|
------------------------------|
------------------------------|
------------------------------|
--5------5------5------5--4---|
--3--3-3-3--3-3-3--3-3-3--2---|


  G5                      A5    
  E  S S E  S S E  S S E  E     
------------------------------||
------------------------------||
------------------------------||
--------------------------2---||
--5------5------5------5--0---||
--3--3-3-3--3-3-3--3-3-3------||



    E  S S S S S S S S S S S S S S  
|----------------------------------|
|----------------------------------|
|------4-5-4-----------------------|
|------------5-4---4-5-4-5-4-------|
|----------------7-----------7-5-4-|
|---7------------------------------|


  E  S S S S S S S S S S S S S S  
---------------------------------|
---------------------------------|
-----4-5-4-----------------------|
-----------5-4---4-5-4-5-4-------|
---------------7-----------7-5-4-|
--7------------------------------|


  E  S S S S S S S S S S S S S S  
---------------------------------|
---------------------------------|
-----4-5-4-----------------------|
-----------5-4---4-5-4-5-4-------|
---------------7-----------7-5-4-|
--7------------------------------|


  E  S S S S S S S S S S S S S S    
----------------------------------||
----------------------------------||
-----4-5-4------------------------||
-----------5-4---4-5-4-5-4--------||
---------------7-----------7-5-4--||
--7-------------------------------||


  Q    Q    H           W                 
---------------------|-------------------|
---------------------|-------------------|
---------------------|-------------------|
--4------------------|-------------------|
--2------------------|-------------------|
---------------------|-------------------|


-------------------||
-------------------||
-------------------||
-------------------||
-------------------||
-------------------||



Tablature Legend

----------------
L - tied note
x - dead note
g - grace note
(n) - ghost note
> - accentuded note
NH - natural harmonic
AH - artificial harmonic
TH - tapped harmonic
SH - semi harmonic
PH - pitch harmonic
h - hammer on
p - pull off
b - bend
br - bendRelease
pb - preBend
pbr - preBendRelease
brb - bendReleaseBend
\n/ - tremolo bar dip
\n - tremolo bar dive
-/n - tremolo bar Release up
/n\ - tremolo bar inverted dip
/n - tremolo bar return
-\n - tremolo bar Release down
S - shift slide
s - legato slide
/ -  slide into from below or out of upwards
\ -  slide into from above or out of downwards
~ - vibrato
W - wide vibrato
tr - trill
TP - tremolo picking
T - tapping
S - slap
P - pop
< - fade in
^ - brush up
v - brush down

END
comments
We did not receive enough feedback on this tab! Please rate:
1 2 3 4 5
I want to post or [tab]
guest
You may want to rate the tab now too:
select rating
Please do not post tabs as comments. Select "correction" instead!