Oops, an error
Loading. Please wait.

Fight Till Death Tab

ver2
ver2

Solo

Whole song

Interactive

More versions @911Tabs.com
2,829 views 15 this week
no commentswrite comment
1 2 3 4 5
excellent!
x 1
Autoscroll
+/-
esc
set tempo
stop
Contributor
WARNING: You are trying to view
                                    content from Ultimate-Guitar.com
                                    in an unauthorized application,
                                    which is prohibited.

                                    Please use an official Ultimate
                                    Guitar Tabs application for iPhone,
                                    iPad or Android to access legitimate
                                    chords, guitar, bass, and drum tabs
                                    from Ultimate-Guitar.com database.

                                    Type "ultimate guitar tabs" in Apple
                                    App Store's or Android Market's
                                    search to find the application.
ARTIST - SLAYER
SONG   - FIGHT TILL DEATH 
ALBUM  - SHOW NO MERCY (1983)

Transcription by Mik@T 
(This is mine first tab what I have ever done...)

----------------------------------------------------------------------

 Rhy.Fig.1                                              End Rhy.Fig.1
e|---------------------------------|---------------------------------|
B|---------------------------------|---------------------------------|
G|---------------------------------|---------------------------------| 
D|---------------------2---3-------|----------------5----------------| x4
A|-----5---6-------------------2---|3---3---6---5--(5)--6------------|
E|-3-----------5---6---------------|------------------------5---6----|
 

  Rhy.Fig.2                                             End Rhy.Fig.2
e|---------------------------------|---------------------------------|
B|---------------------------------|---------------------------------|
G|---------------------------------|---------------------------------|
D|---------------------------------|---------------------------------| x8
A|---------------------------------|-----------------10------8-------|
E|-3-3-3-3-3-3-3-3-3-3-3-3-3-3-3-3-|-4-4-4-4-4-4-4-4-8-------6-------|


  Rhy.Fig.3
e|---------------------------------|---------------------------------|
B|---------------------------------|---------------------------------|
G|---------------------------------|---------------------------------|
D|-------------------------6-------|-----------------6-------5-------|
A|-------------------------4-------|-----------------4-------3-------|
E|-1-1-1-1-1-1-1-1-1-1-1-1---------|-1-1-1-1-1-1-1-1-----------------|
                                                       End Rhy.fig.3
e|---------------------------------|---------------------------------|
B|---------------------------------|---------------------------------|
G|---------------------------------|---------------------------------|
D|-------------------------6-------|---------------------------------| x2
A|-------------------------4-------|-----------------6-------6-------|
E|-1-1-1-1-1-1-1-1-1-1-1-1---------|-1-1-1-1-1-1-1-1-4-------4-------|


Rhy.Fig.1                                              End Rhy.Fig.1
e|---------------------------------|---------------------------------|
B|---------------------------------|---------------------------------|
G|---------------------------------|---------------------------------| 
D|---------------------2---3-------|----------------5----------------| x4
A|-----5---6-------------------2---|3---3---6---5--(5)--6------------|
E|-3-----------5---6---------------|------------------------5---6----|


  Rhy.Fig.2                                             End Rhy.Fig.2
e|---------------------------------|---------------------------------|
B|---------------------------------|---------------------------------|
G|---------------------------------|---------------------------------|
D|---------------------------------|---------------------------------| x8
A|---------------------------------|-----------------10------8-------|
E|-3-3-3-3-3-3-3-3-3-3-3-3-3-3-3-3-|-4-4-4-4-4-4-4-4-8-------6-------|


  Rhy.Fig.3
e|---------------------------------|---------------------------------|
B|---------------------------------|---------------------------------|
G|---------------------------------|---------------------------------|
D|-------------------------6-------|-----------------6-------5-------|
A|-------------------------4-------|-----------------4-------3-------|
E|-1-1-1-1-1-1-1-1-1-1-1-1---------|-1-1-1-1-1-1-1-1-----------------|
                                                       End Rhy.fig.3
e|---------------------------------|---------------------------------|
B|---------------------------------|---------------------------------|
G|---------------------------------|---------------------------------|
D|-------------------------6-------|---------------------------------| x2
A|-------------------------4-------|-----------------6-------6-------|
E|-1-1-1-1-1-1-1-1-1-1-1-1---------|-1-1-1-1-1-1-1-1-4-------4-------|


Rhy.Fig.1                                              End Rhy.Fig.1
e|---------------------------------|---------------------------------|
B|---------------------------------|---------------------------------|
G|---------------------------------|---------------------------------| 
D|---------------------2---3-------|----------------5----------------| x4
A|-----5---6-------------------2---|3---3---6---5--(5)--6------------|
E|-3-----------5---6---------------|------------------------5---6----|


  Rhy.Fig.4                                             End Rhy.Fig.4
e|---------------------------------|---------------------------------|
B|---------------------------------|---------------------------------|
G|---------------------------------|---------------------------------|
D|---------------------------------|---------------------------------| x4
A|---------------------------------|---------------------------------|
E|-3-3-3-3-3-3-3-3-3-3-3-3-3-3-3-3-|-6-6-6-6-6-6-6-6-2-2-2-2-2-2-2-2-|

 
  Rhy.Fig.5                                             End Rhy.Fig.5
e|---------------------------------|---------------------------------|
B|---------------------------------|---------------------------------|
G|---------------------------------|---------------------------------|
D|---------------------------8---8-|---------------------------8---8-| x2
A|---------------------------6---6-|---------------------------6---6-|
E|-8-8-8-8-8-6-8-8-8-6-8-6-8-------|-8-8-8-8-8-6-8-8-8-6-8-6-8-------|


  Rhy.Fig.6                                             End Rhy.Fig.6
e|---------------------------------|---------------------------------|
B|---------------------------------|---------------------------------|
G|---------------------------------|---------------------------------|
D|---------------------------3---3-|---------------------------3---3-| X2
A|---------------------------1---1-|---------------------------1---1-|
E|-3-3-3-3-3-1-3-3-3-1-3-1-3-------|-3-3-3-3-3-1-3-3-3-1-3-1-3-------|


  Rhy.Fig.5                                             End Rhy.Fig.5
e|---------------------------------|---------------------------------|
B|---------------------------------|---------------------------------|
G|---------------------------------|---------------------------------|
D|---------------------------8---8-|---------------------------8---8-| x2
A|---------------------------6---6-|---------------------------6---6-|
E|-8-8-8-8-8-6-8-8-8-6-8-6-8-------|-8-8-8-8-8-6-8-8-8-6-8-6-8-------|


  Rhy.Fig.6                                             End Rhy.Fig.6
e|---------------------------------|---------------------------------|
B|---------------------------------|---------------------------------|
G|---------------------------------|---------------------------------|
D|---------------------------3---3-|---------------------------3---3-| X2
A|---------------------------1---1-|---------------------------1---1-|
E|-3-3-3-3-3-1-3-3-3-1-3-1-3-------|-3-3-3-3-3-1-3-3-3-1-3-1-3-------|


  Rhy.Fig.3
e|---------------------------------|---------------------------------|
B|---------------------------------|---------------------------------|
G|---------------------------------|---------------------------------|
D|-------------------------6-------|-----------------6-------5-------|
A|-------------------------4-------|-----------------4-------3-------|
E|-1-1-1-1-1-1-1-1-1-1-1-1---------|-1-1-1-1-1-1-1-1-----------------|

                                                       End Rhy.fig.3
e|---------------------------------|---------------------------------|
B|---------------------------------|---------------------------------|
G|---------------------------------|---------------------------------|
D|-------------------------6-------|---------------------------------| x2
A|-------------------------4-------|-----------------6-------6-------|
E|-1-1-1-1-1-1-1-1-1-1-1-1---------|-1-1-1-1-1-1-1-1-4-------4-------|


  Rhy.Fig.2                                             End Rhy.Fig.2
e|---------------------------------|---------------------------------|
B|---------------------------------|---------------------------------|
G|---------------------------------|---------------------------------|
D|---------------------------------|---------------------------------| x8
A|---------------------------------|-----------------10------8-------|
E|-3-3-3-3-3-3-3-3-3-3-3-3-3-3-3-3-|-4-4-4-4-4-4-4-4-8-------6-------|


  Rhy.Fig.3
e|---------------------------------|---------------------------------|
B|---------------------------------|---------------------------------|
G|---------------------------------|---------------------------------|
D|-------------------------6-------|-----------------6-------5-------|
A|-------------------------4-------|-----------------4-------3-------|
E|-1-1-1-1-1-1-1-1-1-1-1-1---------|-1-1-1-1-1-1-1-1-----------------|

                                                       End Rhy.fig.3
e|---------------------------------|---------------------------------|
B|---------------------------------|---------------------------------|
G|---------------------------------|---------------------------------|
D|-------------------------6-------|---------------------------------| x2
A|-------------------------4-------|-----------------6-------6-------|
E|-1-1-1-1-1-1-1-1-1-1-1-1---------|-1-1-1-1-1-1-1-1-4-------4-------|


Rhy.Fig.1                                              End Rhy.Fig.1
e|---------------------------------|---------------------------------|
B|---------------------------------|---------------------------------|
G|---------------------------------|---------------------------------| 
D|---------------------2---3-------|----------------5----------------| x4
A|-----5---6-------------------2---|3---3---6---5--(5)--6------------|
E|-3-----------5---6---------------|------------------------5---6----|


  Rhy.Fig.7
e|---------------------------------|---------------------------------|
B|---------------------------------|---------------------------------|
G|---------------------------------|---------------------------------|
D|-----------------7---------------|---------------------------------|
A|-5-------8-------3-------4-------|-5-------8-------7---2---3-------|
E|-3-------6---------------2-------|-3-------6-------5---0---1-------|

                                                              End Rhy.Fig.7
e|---------------------------------|---------------------------------------|
B|---------------------------------|---------------------------------------|
G|---------------------------------|---------------------------------------|
D|-----------------7---------------|---------------------------------------|
A|-5-------8-------3-------4-------|-5-------8-------4---5--5-5-5-5--5-5-5-|
E|-3-------6---------------2-------|-3-------6-------2---3--3-3-3-3--3-3-3-|

END OF SONG
comments
We did not receive enough feedback on this tab! Please rate:
print report bad tab
1 2 3 4 5
I want to post or [tab]
guest
You may want to rate the tab now too:
select rating
Please do not post tabs as comments. Select "correction" instead!