Oops, an error
Loading. Please wait.

Implode Tab

ver1
ver1

Whole song

More versions @911Tabs.com
3,238 views 60 this week
2 commentsread comments
1 2 3 4 5
excellent!
x 6
Autoscroll
+/-
esc
set tempo
stop
Contributor
Hey! There's an official Ultimate Guitar app which is ideal
for learning songs when you're away from computer. Get the app
WARNING: You are trying to view
                                    content from Ultimate-Guitar.com
                                    in an unauthorized application,
                                    which is prohibited.

                                    Please use an official Ultimate
                                    Guitar Tabs application for iPhone,
                                    iPad or Android to access legitimate
                                    chords, guitar, bass, and drum tabs
                                    from Ultimate-Guitar.com database.

                                    Type "ultimate guitar tabs" in Apple
                                    App Store's or Android Market's
                                    search to find the application.
implode


slayer


TRANSCRIBED BY RUDY GUZMAN


guzman_84@hotmail.com



tuning drop B

                                                 x4
:-------------------------------------------------|
:-------------------------------------------------|
:-------------------------------------------------|
:-------------------------------------------------|
:-----5--------6-5---5-6--0-0-0-0-0-0-0-0-0-0-0-0-|
:-5h8---7--5h7-----7------0-0-0-0-0-0-0-0-0-0-0-0-|

  
:-------------------------|
:-------------------------|
:-------------------------|
:-------------------------|
:-5-3-0--3-3-2-2-3--2h3p2-|
:-5-3-0--3-3-2-2-3--2h3p2-|


  so is it just me or everyone can see the world
:--------------------------------------------------|
:--------------------------------------------------|
:--------------------------------------------------|
:--------------------------------------------------|
:-0-0-0-0-0-0------5h6p5------0-0-0-0-0-0------5-6-|
:-0-0-0-0-0-0--5h8-------8p5--0-0-0-0-0-0--5h7-----|

   drowning in its own blood 
:----------------------------------------------------|
:----------------------------------------------------|
:----------------------------------------------------|
:----------------------------------------------------|
:-0-0-0-0-0-0------5h6p5------6-5---5-3----3h5p3-----|
:-0-0-0-0-0-0--5h8-------8p5--6-5-0-5-3--6-------6p3-|
  
   humanity...
:--------------------------------------------------|
:--------------------------------------------------|
:--------------------------------------------------|
:--------------------------------------------------|
:-0-0-0-0-0-0------5h6p5------0-0-0-0-0-0------5-6-|
:-0-0-0-0-0-0--5h8-------8p5--0-0-0-0-0-0--5h7-----|

    
:----------------------------------------------|
:----------------------------------------------|
:----------------------------------------------|
:----------------------------------------------|
:-0-0-0-0-0-0------6----6-5---5-3----3h5p3-----|
:-0-0-0-0-0-0--5h7---7--6-5-0-5-3--6-------6p3-|

   down
:------|
:------|
:------|
:------|
:-0----|
:-0----|

   standing...                                         x4
:--------------------------------------------------------|
:--------------------------------------------------------|
:--------------------------------------------------------|
:--------------------------------------------------------|
:----------------------------------------------0h1p0-----|
:-0h1h2-2-2-2--0h3p2-2-2-2--0h1h2-2-2-2-2-2-2--------2p0-|


  like a fire storm...                           x2
:--------------------------------------------------|
:--------------------------------------------------|
:--------------------------------------------------|
:--------------------------------------------------|
:----------------------------------------4p3---4p3-|
:-3h5-5-5-5--5p6-5-5-5--3h5-5-5-5-5-5--6-----6-----|

  deep down...                                       
:--------------------------------------------------------|
:--------------------------------------------------------|
:--------------------------------------------------------|
:--------------------------------------------------------|
:----------------------------------------------0h1p0-----|
:-0h1h2-2-2-2--0h3p2-2-2-2--0h1h2-2-2-2-2-2-2--------2p0-|

:---------------------------------------------|
:---------------------------------------------|
:---------------------------------------------|
:---------------------------------------------|
:---------------------------------------------|
:-0h1h2-2-2-2--0h3p2-2-2-2--0h1h2-2-2-2-2-2-2-|

                     x3
:---------------------|
:---------------------|
:---------------------|
:---------------------|
:-2------2-5-3----3-5-|
:-2----0-2-5-3--0-3-5-|


                                                       x4
:--------------------------------------------------------|
:--------------------------------------------------------|
:--------------------------------------------------------|
:--------------------------------------------------------|
:----------------------------------------------0h1p0-----|
:-0h1h2-2-2-2--0h3p2-2-2-2--0h1h2-2-2-2-2-2-2--------2p0-|


                                                 x2
:--------------------------------------------------|
:--------------------------------------------------|
:--------------------------------------------------|
:--------------------------------------------------|
:----------------------------------------4p3---4p3-|
:-3h5-5-5-5--5p6-5-5-5--3h5-5-5-5-5-5--6-----6-----|

                                           
:--------------------------------------------------------|
:--------------------------------------------------------|
:--------------------------------------------------------|
:--------------------------------------------------------|
:----------------------------------------------0h1p0-----|
:-0h1h2-2-2-2--0h3p2-2-2-2--0h1h2-2-2-2-2-2-2--------2p0-|

:---------------------------------------------|
:---------------------------------------------|
:---------------------------------------------|
:---------------------------------------------|
:---------------------------------------------|
:-0h1h2-2-2-2--0h3p2-2-2-2--0h1h2-2-2-2-2-2-2-|

                     x3
:---------------------|
:---------------------|
:---------------------|
:---------------------|
:-2------2-5-3----3-5-|
:-2----0-2-5-3--0-3-5-|

                                                                           x4
:---------------------------------------------------------------------------|
:---------------------------------------------------------------------------|
:---------------------------------------------------------------------------|
:---------------------------------------------------------------------------|
:-8/7----------------8/7----------------8/7--------10/8-------8/7-----------|
:-8/7-0-0-0-0-0-0-0--8/7-0-0-0-0-0-0-0--8/7-0-0-0--10/8---0-0-8/7-0-0-0-0-0-|


 solo 1
                                          bar  
:---------------------------------------------------------------------------|
:-----------------------------------------0----12~~~-----12-15-13-----12-15-|
:------------7-------------9-----9-12-10--0----------13------------13-------|
:-/9---7--9----10-----9-10----10--------------------------------------------|
:------------------12-------------------------------------------------------|
:---------------------------------------------------------------------------|

  
:-14bf-14b~~----0000-12-0000-13-0000-15-0000-17-0000-18-0000-20-000-22-24bf-24b-|
:-------------------------------------------------------------------------------|
:-------------------------------------------------------------------------------|
:-------------------------------------------------------------------------------|
:-------------------------------------------------------------------------------|
:-------------------------------------------------------------------------------|

                bar///////////////////////////////
:-24b-24b-24bf-----------------------------------------------|
:---------------0---------------------------------------19bf-|
:---------------0--12p0h12p0h12p0h10h12p10h12p10-12/---------|
:---------------0--------------------------------------------|
:------------------------------------------------------------|
:------------------------------------------------------------|

  
:-/14-14-14-16-16-17-17-17-17--14-14-14-16-16-17-17-17-17--14-16-17-17-|
:----------------------------------------------------------------------|
:----------------------------------------------------------------------|
:----------------------------------------------------------------------|
:----------------------------------------------------------------------|
:----------------------------------------------------------------------|

:-/15-15-15-17-17-18-18-18-18--15-15-15-17-17-18-18-18-18--15-17-18-18-|
:----------------------------------------------------------------------|
:----------------------------------------------------------------------|
:----------------------------------------------------------------------|
:----------------------------------------------------------------------|
:----------------------------------------------------------------------|

                                                     bar////////
:-15-17----------------------------------------------------------|
:-------18-15-17-18-17-15----------------------------------------|
:-------------------------17-14-15-17-15-14--------------------0-|
:-------------------------------------------17-15-14-----0-------|
:-----------------------------------------------------0----------|
:----------------------------------------------------------------|


             
:-------------------------------------------------|
:-------------------------------------------------|
:-------------------------------------------------|
:-------10~~~~~------------0------/14---14--14-14-|
:--/12-----------12/17/12-------------------------|
:-------------------------------------------------|

  
:-----------------------14-14-17-17-17----14-14-17-17-17----|
:-------------------/16----------------16----------------16-|
:-----------------------------------------------------------|
:-14--14-14--14/--------------------------------------------|
:-----------------------------------------------------------|
:-----------------------------------------------------------|

:----15-15-18-18-18----15-15-18-18-18-----16-16-19-19-19-----17-17-20-20-20-|
:-17----------------17-----------------18-----------------19----------------|
:---------------------------------------------------------------------------|
:---------------------------------------------------------------------------|
:---------------------------------------------------------------------------|
:---------------------------------------------------------------------------|

  
:-----18-18-21-21-21-----19-19----------|
:-20------------------21--------0--(0)--|
:-------------------------------0--(0)--|
:---------------------------------------|
:---------------------------------------|
:---------------------------------------|

                                                      x4
:--------------------------------------------------------|
:--------------------------------------------------------|
:--------------------------------------------------------|
:--------------------------------------------------------|
:----------------------------------------------0h1p0-----|
:-0h1h2-2-2-2--0h3p2-2-2-2--0h1h2-2-2-2-2-2-2--------2p0-|


                                                 x2
:--------------------------------------------------|
:--------------------------------------------------|
:--------------------------------------------------|
:--------------------------------------------------|
:----------------------------------------4p3---4p3-|
:-3h5-5-5-5--5p6-5-5-5--3h5-5-5-5-5-5--6-----6-----|

                                           
:--------------------------------------------------------|
:--------------------------------------------------------|
:--------------------------------------------------------|
:--------------------------------------------------------|
:----------------------------------------------0h1p0-----|
:-0h1h2-2-2-2--0h3p2-2-2-2--0h1h2-2-2-2-2-2-2--------2p0-|

:---------------------------------------------|
:---------------------------------------------|
:---------------------------------------------|
:---------------------------------------------|
:---------------------------------------------|
:-0h1h2-2-2-2--0h3p2-2-2-2--0h1h2-2-2-2-2-2-2-|


  implode           x3
:---------------------|
:---------------------|
:---------------------|
:---------------------|
:-2------2-5-3----3-5-|
:-2----0-2-5-3--0-3-5-|


  solo 2                             wah bar//////       ////
:-----------------------------------------------------------|
:----------------------------0--10-10-10/-------------------|
:-12bf----12b-12b-12b-12b~~--0--10-10-10/----------0--------|
:-----------------------------------------------------0-----|
:-----------------------------------------------------------|
:-----------------------------------------------------------|

  
:--17---------17-----------------19bf-19b-19b-19bf/----|
:-/20~~~~----/20~~~~---0--0--0---22bf-22b-22b-22bf/----|
:----------------------0--0--0-------------------------|
:----------------------0--0--0-------------------------|
:------------------------------------------------------|
:------------------------------------------------------|


:-------------------------------------------------------|
:-------------------------------------------------------|
:-------------------------------------------------------|
:-------------------------------------------------------|
:---------------6-5h6p5---------------------5-3h5p3-----|
:-0-0-0-0-0-0-0---------8p5--0-0-0-0-0-0-0----------6p3-|

:------------------------------------------------------------------------|
:------------------------------------------------------------------------|
:------------------------------------------------------------------------|
:------------------------------------------------------------------------|
:---------------6-5h6p5--------------------------------------------------|
:-0-0-0-0-0-0-0---------8p5--1/3-3-3-3-3-5-5-5-5-5-5-6-6-6-6-6-5-5-5-5-5-|
  

:-------------------------------------------------------|
:-------------------------------------------------------|
:-------------------------------------------------------|
:-------------------------------------------------------|
:---------------6-5h6p5---------------------5-3h5p3-----|
:-0-0-0-0-0-0-0---------8p5--0-0-0-0-0-0-0----------6p3-|

:------------------------------------------------------------------------|
:------------------------------------------------------------------------|
:------------------------------------------------------------------------|
:------------------------------------------------------------------------|
:---------------6-5h6p5--------------------------------------------------|
:-0-0-0-0-0-0-0---------8p5--1/3-3-3-3-3-5-5-5-5-5-5-6-6-6-6-6-5-5-5-5-5-|
  
  

:-------------------------------------------------------|
:-------------------------------------------------------|
:-------------------------------------------------------|
:-------------------------------------------------------|
:---------------6-5h6p5---------------------5-3h5p3-----|
:-0-0-0-0-0-0-0---------8p5--0-0-0-0-0-0-0----------6p3-|

:------------------------------------------------------------------------|
:------------------------------------------------------------------------|
:------------------------------------------------------------------------|
:------------------------------------------------------------------------|
:---------------6-5h6p5--------------------------------------------------|
:-0-0-0-0-0-0-0---------8p5--1/3-3-3-3-3-5-5-5-5-5-5-6-6-6-6-6-5-5-5-5-5-|
  
  
:---------------------------------------------|
:---------------------------------------------|
:---------------------------------------------|
:---------------------------------------------|
:---------------------------------------------|
:-1/3-3-3-3-3-5-5-5-5-5-5-6-6-6-6-6-5-5-5-5-5-|


:----------16b-16b--16b--16b-16b--16b--16b~~~~--------------|
:----------16b-16b-------16b-16b--16b-----------------------|
:-----------------------------------------------------------|
:-----------------------------------------------------------|
:-0----------------------------------------------/12/-----0-|
:-0-------------------------------------------------------0-|




hillo son mex

24/04/14
comments
print report bad tab
2 comments total.
0 reply
AtillaTR wrote on April 26 2014, 04:54 am

thanks man.

0 reply
nalga_leprosa wrote on April 26 2014, 09:38 am

no problem, enjoy

I want to post or [tab]
guest
You may want to rate the tab now too:
select rating
Please do not post tabs as comments. Select "correction" instead!