Oops, an error
Loading. Please wait.

Implode Tab

ver2
ver2

Whole song

More versions @911Tabs.com
989 views 33 this week
2 commentsread comments
1 2 3 4 5
excellent!
x 3
add to favorites launch autoscroll
font size
0
reset
Autoscroll
+/-
esc
set tempo
stop
Contributor
Tuning
B F# B E G# C#
WARNING: You are trying to view
                                    content from Ultimate-Guitar.com
                                    in an unauthorized application,
                                    which is prohibited.

                                    Please use an official Ultimate
                                    Guitar Tabs application for iPhone,
                                    iPad or Android to access legitimate
                                    chords, guitar, bass, and drum tabs
                                    from Ultimate-Guitar.com database.

                                    Type "ultimate guitar tabs" in Apple
                                    App Store's or Android Market's
                                    search to find the application.

SLAYER

IMPLODE

B-F#-B-E-G#-C#

TABBED BY andherembrace





------------------------------------------------|
------------------------------------------------|
------------------------------------------------|
------------------------------------------------|
--^--5----^--6-5--^--5-6-0-0-0-0-0-0-0-0-0-0-0--|
-5-8---7-5-7-----7-8-----0-0-0-0-0-0-0-0-0-0-0--|
                         * * * * * * * * * * *

------------------------------------------------|
------------------------------------------------|
------------------------------------------------|
------------------------------------------------|
--^--5----^--6-5--^--5-6-0-0-0-0-0-0-0-0-0-0-0--|
-5-8---7-5-7-----7-8-----0-0-0-0-0-0-0-0-0-0-0--|
                         * * * * * * * * * * *

------------------------------------------------|
------------------------------------------------|
------------------------------------------------|
------------------------------------------------|
--^--5----^--6-5--^--5-6-0-0-0-0-0-0-0-0-0-0-0--|
-5-8---7-5-7-----7-8-----0-0-0-0-0-0-0-0-0-0-0--|
                         * * * * * * * * * * *

----------------------------------------------|
----------------------------------------------|
----------------------------------------------|
----------------------------------------------|
--^--5----^--6-5--^--5-6-5-4---4-4-3-3-4-4-3--|
-5-8---7-5-7-----7-8-----5-4-0-4-4-3-3-4-4-3--|
                             *



0:18

---------------------------------------|
---------------------------------------|
---------------------------------------|
----------------^----------------------|
-0-0-0-0-0--^--6-5---0-0-0-0-0--^--5-6-|
-0-0-0-0-0-5-8-----8-0-0-0-0-0-5-7-----|
 * * * * *           * * * * *       

-----------------------------------------|
-----------------------------------------|
-----------------------------------------|
----------------^-------------------^----|
-0-0-0-0-0--^--6-5---6-5---5-3--^--5-3---|
-0-0-0-0-0-5-8-----8-6-5-0-5-3-3-6-----6-|
 * * * * *               *


---------------------------------------|
---------------------------------------|
---------------------------------------|
----------------^----------------------|
-0-0-0-0-0--^--6-5---0-0-0-0-0--^--5-6-|
-0-0-0-0-0-5-8-----8-0-0-0-0-0-5-7-----|
 * * * * *           * * * * *       

-----------------------------------------|
-----------------------------------------|
-----------------------------------------|
----------------^-------------------^----|
-0-0-0-0-0--^--6-5---6-5---5-3--^--5-3---|
-0-0-0-0-0-5-8-----8-6-5-0-5-3-3-6-----6-|
 * * * * *               *


---------------------------------------|
---------------------------------------|
---------------------------------------|
----------------^----------------------|
-0-0-0-0-0--^--6-5---0-0-0-0-0--^--5-6-|
-0-0-0-0-0-5-8-----8-0-0-0-0-0-5-7-----|
 * * * * *           * * * * *       

-----------------------------------------|
-----------------------------------------|
-----------------------------------------|
----------------^-------------------^----|
-0-0-0-0-0--^--6-5---6-5---5-3--^--5-3---|
-0-0-0-0-0-5-8-----8-6-5-0-5-3-3-6-----6-|
 * * * * *               *



---------------------------------------|
---------------------------------------|
---------------------------------------|
----------------^----------------------|
-0-0-0-0-0--^--6-5---0-0-0-0-0--^--5-6-|
-0-0-0-0-0-5-8-----8-0-0-0-0-0-5-7-----|
 * * * * *           * * * * *       

-------------------------------------------|
-------------------------------------------|
-------------------------------------------|
----------------^-------------------^------|
-0-0-0-0-0--^--6-5---6-5---5-3--^--5-3--[6]|
-0-0-0-0-0-5-8-----8-6-5-0-5-3-3-6-----6[6]|
 * * * * *               *                |





0:49


--------------------------------------------|
--------------------------------------------|
--------------------------------------------|
---------------------------------^-----^----|
-----------^----------^---------1-0---1-0---|
-2-222222-3-2-222222-0-2-222222-----2-----2-|
   ******     ******     ******

--------------------------------------------|
--------------------------------------------|
--------------------------------------------|
---------------------------------^-----^----|
-----------^----------^---------1-0---1-0---|
-2-222222-3-2-222222-0-2-222222-----2-----2-|
   ******     ******     ******

--------------------------------------------|
--------------------------------------------|
--------------------------------------------|
---------------------------------^-----^----|
-----------^----------^---------1-0---1-0---|
-2-222222-3-2-222222-0-2-222222-----2-----2-|
   ******     ******     ******

--------------------------------------------|
--------------------------------------------|
--------------------------------------------|
---------------------------------^-----^----|
-----------^----------^---------1-0---1-0---|
-2-222222-3-2-222222-0-2-222222-----2-----2-|
   ******     ******     ******



---------------------------------------------|
---------------------------------------------|
---------------------------------------------|
---------------------------------^-----^-----|
-----------^----------^---------4-3---4-3----|
-5-555555-6-5-555555-3-5-555555-----5-----5--|
   ******     ******     ******

---------------------------------------------|
---------------------------------------------|
---------------------------------------------|
---------------------------------^-----^-----|
-----------^----------^---------4-3---4-3----|
-5-555555-6-5-555555-3-5-555555-----5-----5--|
   ******     ******     ******


--------------------------------------------|
--------------------------------------------|
--------------------------------------------|
---------------------------------^-----^----|
-----------^----------^---------1-0---1-0---|
-2-222222-3-2-222222-0-2-222222-----2-----2-|
   ******     ******     ******

--------------------------------------------|
--------------------------------------------|
--------------------------------------------|
---------------------------------^-----^----|
-----------^----------^---------1-0---1-0---|
-2-222222-3-2-222222-0-2-222222-----2-----2-|
   ******     ******     ******




1:10


----------------------------------------------|
----------------------------------------------|
----------------------------------------------|
----------------------------------------------|
-2----0-2-5-3----0-2-3-2----0-2-5-3----0-2-3--|
-2----0-2-5-3----0-2-3-2----0-2-5-3----0-2-3--|
      

------------------------------------|
------------------------------------|
------------------------------------|
------------------------------------|
-2----0-2-5-3----0-2-3-2----0-2-5-3-|
-2----0-2-5-3----0-2-3-2----0-2-5-3-|






1:20


--------------------------------------------|
--------------------------------------------|
--------------------------------------------|
---------------------------------^-----^----|
-----------^----------^---------1-0---1-0---|
-2-222222-3-2-222222-0-2-222222-----2-----2-|
   ******     ******     ******

--------------------------------------------|
--------------------------------------------|
--------------------------------------------|
---------------------------------^-----^----|
-----------^----------^---------1-0---1-0---|
-2-222222-3-2-222222-0-2-222222-----2-----2-|
   ******     ******     ******

--------------------------------------------|
--------------------------------------------|
--------------------------------------------|
---------------------------------^-----^----|
-----------^----------^---------1-0---1-0---|
-2-222222-3-2-222222-0-2-222222-----2-----2-|
   ******     ******     ******

--------------------------------------------|
--------------------------------------------|
--------------------------------------------|
---------------------------------^-----^----|
-----------^----------^---------1-0---1-0---|
-2-222222-3-2-222222-0-2-222222-----2-----2-|
   ******     ******     ******



---------------------------------------------|
---------------------------------------------|
---------------------------------------------|
---------------------------------^-----^-----|
-----------^----------^---------4-3---4-3----|
-5-555555-6-5-555555-3-5-555555-----5-----5--|
   ******     ******     ******

---------------------------------------------|
---------------------------------------------|
---------------------------------------------|
---------------------------------^-----^-----|
-----------^----------^---------4-3---4-3----|
-5-555555-6-5-555555-3-5-555555-----5-----5--|
   ******     ******     ******


--------------------------------------------|
--------------------------------------------|
--------------------------------------------|
---------------------------------^-----^----|
-----------^----------^---------1-0---1-0---|
-2-222222-3-2-222222-0-2-222222-----2-----2-|
   ******     ******     ******

--------------------------------------------|
--------------------------------------------|
--------------------------------------------|
---------------------------------^-----^----|
-----------^----------^---------1-0---1-0---|
-2-222222-3-2-222222-0-2-222222-----2-----2-|
   ******     ******     ******




1:40


----------------------------------------------|
----------------------------------------------|
----------------------------------------------|
----------------------------------------------|
-2----0-2-5-3----0-2-3-2----0-2-5-3----0-2-3--|
-2----0-2-5-3----0-2-3-2----0-2-5-3----0-2-3--|
      

-------------------------------------|
-------------------------------------|
-------------------------------------|
-------------------------------------|
-2----0-2-5-3----0-2-3-2----0------3-|
-2----0-2-5-3----0-2-3-2----0-2255-3-|




1:50


------------------------------------------------------------------|
------------------------------------------------------------------|
------------------------------------------------------------------|
------------------------------------------------------------------|
-8-7-------------8-7-------------8-7-----10-8-----8-7-------------|
-8-7-000-0-0-000-8-7-000-0-0-000-8-7-000-10-8-000-8-7-000-0-0-000-|
     *** * * ***     *** * * ***     ***      ***     *** * * ***

------------------------------------------------------------------|
------------------------------------------------------------------|
------------------------------------------------------------------|
------------------------------------------------------------------|
-8-7-------------8-7-------------8-7-----10-8-----8-7-------------|
-8-7-000-0-0-000-8-7-000-0-0-000-8-7-000-10-8-000-8-7-000-0-0-000-|
     *** * * ***     *** * * ***     ***      ***     *** * * ***

------------------------------------------------------------------|
------------------------------------------------------------------|
------------------------------------------------------------------|
------------------------------------------------------------------|
-8-7-------------8-7-------------8-7-----10-8-----8-7-------------|
-8-7-000-0-0-000-8-7-000-0-0-000-8-7-000-10-8-000-8-7-000-0-0-000-|
     *** * * ***     *** * * ***     ***      ***     *** * * ***

------------------------------------------------------------------|
------------------------------------------------------------------|
------------------------------------------------------------------|
------------------------------------------------------------------|
-8-7-------------8-7-------------8-7-----10-8-----8-7-------------|
-8-7-000-0-0-000-8-7-000-0-0-000-8-7-000-10-8-000-8-7-000-0-0-000-|
     *** * * ***     *** * * ***     ***      ***     *** * * ***



SOLO PARTS ARE AT BOTTOM

----------------------------------------------|
----------------------------------------------|
----------------------------------------------|
----------------------------------------------|
-2----0-2-5-3----0-2-3-2----0-2-5-3----0-2-3--|
-2----0-2-5-3----0-2-3-2----0-2-5-3----0-2-3--|
      

------------------------------------|
------------------------------------|
------------------------------------|
------------------------------------|
-2----0-2-5-3----0-2-3-2----0------3|
-2----0-2-5-3----0-2-3-2----0-2255-3|



2:20

-------------------------------------------------------------------|
-------------------------------------------------------------------|
-------------------------------------------------------------------|
-------------------------------------------------------------------|
-0-5-2-5-4------------------------0-5-2-5-4------------------------|
-0-5-2-5-4-4444444444444444444444-0-5-2-5-4-4444444444444444444444-|
           **********************           **********************

-------------------------------------------------------------------|
-------------------------------------------------------------------|
-------------------------------------------------------------------|
-------------------------------------------------------------------|
-0-5-2-5-4------------------------0-5-2-5-4------------------------|
-0-5-2-5-4-4444444444444444444444-0-5-2-5-4-4444444444444444444444-|
           **********************           **********************


-------------------------------------------------------------------|
-------------------------------------------------------------------|
-------------------------------------------------------------------|
-------------------------------------------------------------------|
-0-1-2-4-3------------------------0-1-2-4-3------------------------|
-0-1-2-4-3-3333333333333333333333-0-1-2-4-3-3333333333333333333333-|
           **********************           **********************

-------------------------------------------------------------------|
-------------------------------------------------------------------|
-------------------------------------------------------------------|
-------------------------------------------------------------------|
-0-1-2-4-3------------------------0-1-2-4-3------------------------|
-0-1-2-4-3-3333333333333333333333-0-1-2-4-3-3333333333333333333333-|
           **********************           **********************



2:40

--------------------------------------------|
--------------------------------------------|
--------------------------------------------|
---------------------------------^-----^----|
-----------^----------^---------1-0---1-0---|
-2-222222-3-2-222222-0-2-222222-----2-----2-|
   ******     ******     ******

--------------------------------------------|
--------------------------------------------|
--------------------------------------------|
---------------------------------^-----^----|
-----------^----------^---------1-0---1-0---|
-2-222222-3-2-222222-0-2-222222-----2-----2-|
   ******     ******     ******

--------------------------------------------|
--------------------------------------------|
--------------------------------------------|
---------------------------------^-----^----|
-----------^----------^---------1-0---1-0---|
-2-222222-3-2-222222-0-2-222222-----2-----2-|
   ******     ******     ******

--------------------------------------------|
--------------------------------------------|
--------------------------------------------|
---------------------------------^-----^----|
-----------^----------^---------1-0---1-0---|
-2-222222-3-2-222222-0-2-222222-----2-----2-|
   ******     ******     ******



---------------------------------------------|
---------------------------------------------|
---------------------------------------------|
---------------------------------^-----^-----|
-----------^----------^---------4-3---4-3----|
-5-555555-6-5-555555-3-5-555555-----5-----5--|
   ******     ******     ******

---------------------------------------------|
---------------------------------------------|
---------------------------------------------|
---------------------------------^-----^-----|
-----------^----------^---------4-3---4-3----|
-5-555555-6-5-555555-3-5-555555-----5-----5--|
   ******     ******     ******


--------------------------------------------|
--------------------------------------------|
--------------------------------------------|
---------------------------------^-----^----|
-----------^----------^---------1-0---1-0---|
-2-222222-3-2-222222-0-2-222222-----2-----2-|
   ******     ******     ******

--------------------------------------------|
--------------------------------------------|
--------------------------------------------|
---------------------------------^-----^----|
-----------^----------^---------1-0---1-0---|
-2-222222-3-2-222222-0-2-222222-----2-----2-|
   ******     ******     ******



2:59

----------------------------------------------|
----------------------------------------------|
----------------------------------------------|
----------------------------------------------|
-2----0-2-5-3----0-2-3-2----0-2-5-3----0-2-3--|
-2----0-2-5-3----0-2-3-2----0-2-5-3----0-2-3--|
      

----------------------------------|
----------------------------------|
----------------------------------|
----------------------------------|
-2----0-2-5-3----0-2-3-2----0-2-5-|
-2----0-2-5-3----0-2-3-2----0-2-5-|




3;08


-----------------------------------------------------------------------|
-----------------------------------------------------------------------|
-----------------------------------------------------------------------|
-----------------------------------------------------------------------|
3------4----------3------6----------3------4------3----2---------------|
3-0000-4-00000000-3-0000-6-00000000-3-0000-4-0000-3-00-2-22222222222222|
  ****   ********   ****   ********   ****   ****   **   **************


-----------------------------------------------------------------------|
-----------------------------------------------------------------------|
-----------------------------------------------------------------------|
-----------------------------------------------------------------------|
3------4----------3------6----------3------4------3----2---------------|
3-0000-4-00000000-3-0000-6-00000000-3-0000-4-0000-3-00-2-22222222222222|
  ****   ********   ****   ********   ****   ****   **   **************




3:18

--------------------------------------------------------------|
--------------------------------------------------------------|
--------------------------------------------------------------|
------------^---^---------------^---^---------------^---^-----|
-----------6-5-6-5-------------5-3-5-3-------------6-5-6-5----|
-000000000---------8-000000000---------6-0000000000--------8--|
 *********           *********           **********

--------------------------------------------|
--------------------------------------------|
--------------------------------------------|
--------------------------------------------|
------------^-------------------------------|
2/3-333333-3-5-555555-5/6-666666-6\5-555555-|
    ******     ******     ******     ******



---------------------------------------------------------------|
---------------------------------------------------------------|
---------------------------------------------------------------|
------------^---^---------------^---^----------------^---^-----|
-----------6-5-6-5-------------5-3-5-3--------------6-5-6-5----|
-000000000---------8-000000000---------6-0000000000---------8--|
 *********           *********           **********

--------------------------------------------|
--------------------------------------------|
--------------------------------------------|
--------------------------------------------|
------------^-------------------------------|
2/3-333333-3-5-555555-5/6-666666-6\5-555555-|
    ******     ******     ******     ******

--------------------------------------------------------------|
--------------------------------------------------------------|
--------------------------------------------------------------|
------------^---^---------------^---^---------------^---^-----|
-----------6-5-6-5-------------5-3-5-3-------------6-5-6-5----|
-000000000---------8-000000000---------6-000000000---------8--|
 *********           *********           *********

--------------------------------------------|
--------------------------------------------|
--------------------------------------------|
--------------------------------------------|
------------^-------------------------------|
2/3-333333-3-5-555555-5/6-666666-6\5-555555-|
    ******     ******     ******     ******

--------------------------------------------------------------|
--------------------------------------------------------------|
--------------------------------------------------------------|
------------^---^---------------^---^---------------^---^-----|
-----------6-5-6-5-------------5-3-5-3-------------6-5-6-5----|
-000000000---------8-000000000---------6-000000000---------8--|
 *********           *********           *********

--------------------------------------------|
--------------------------------------------|
--------------------------------------------|
--------------------------------------------|
------------^-------------------------------|
2/3-333333-3-5-555555-5/6-666666-6\5-555555-|
    ******     ******     ******     ******

--------------------------------------------|
--------------------------------------------|
--------------------------------------------|
--------------------------------------------|
------------^-------------------------------|
2/3-333333-3-5-555555-5/6-666666-6\5-555555-|
    ******     ******     ******     ******




--------------------------------------------------------|
--------------------------------------------------------|
--------------------------------------------------------|
--------------------------------------------------------|
-0------------------------------------------------\--0--|
-0------------------------------------------------\--0--|




SOLO PARTS

2:09

--------------------------------------------------------|
-------------------------------------------8------)^----|
--------------7------------------9~--7--99---10-10--0---|
-/9~-----7--9---10~-----7--9--10------------------------|
-----------------------------------------------------[8]|
--------------------------------------------------------|


2:15
                                    ) (   )~~~
---------------10-----------------13----13------|
/12~----10--12----13~----10-12-13---------------|
------------------------------------------------|
------------------------------------------------|
------------------------------------------------|
------------------------------------------------|

                                        )     )  )  )  )~~~~~
12-12--13-0-16-16-0-17-0-19-0-21-21-0-24----24-24-24-24--|
--------------------------------------PH-----------------|
---------------------------------------------------------|
---------------------------------------------------------|
---------------------------------------------------------|
---------------------------------------------------------|



PULLS
-----------------------)--(-------|
-----/-\-/-\--------[19]-----\----|
-/-\---------/-\-/-\--------------|
----------------------------------|
----------------------------------|
----------------------------------|

2:25

/14161618181818161418181416161818181816141919-|
----------------------------------------------|
----------------------------------------------|
----------------------------------------------|
----------------------------------------------|
----------------------------------------------|



151717191919191715191915171719191919171416161818--|
--------------------------------------------------|
--------------------------------------------------|
--------------------------------------------------|
--------------------------------------------------|
--------------------------------------------------|

             /\
-141618-18-181614---------/\-----/\----------------------|
------------------18-18-181714-141714--------------------|
-------------------------------------17-14151714---------|
-------------------------------------------------151315~-|
---------------------------------------------------------|
---------------------------------------------------------|



2;30 W/WAH

---------------------------------------------------------|
---------------------------------------------------------|
---------------------10--10--10-10-10-10-10-10----/------|
-10~~~~-----10-\------------------------------10\--------|
---------------------------------------------------------|
---------------------------------------------------------|



-1717131413141314171713141314131418181415141514151818141514151415|
-----------------------------------------------------------------|
-----------------------------------------------------------------|
-----------------------------------------------------------------|
-----------------------------------------------------------------|
-----------------------------------------------------------------|



191914151415141520201617161716172121171817181718--------|
---------------------------------------------------[0]V-|
--------------------------------------------------------|
--------------------------------------------------------|
--------------------------------------------------------|
--------------------------------------------------------|



3:08

---____-------------------------------------|
---)---(----)--)--)--)~~~-------------------|
-12-------12-12-12-12------/--/--/--/----V--|
-PH-----------------------------------------|
--------------------------------------------|
--------------------------------------------|

                                    )  )  )  )  )  )  )(
--17++++-----17++++---------------19-19-19-19-19-19-19---------|
--20WWWW-\---20WWWW\----v--v--v---22-22-22-22-22-22-22---------|
---------------------------------------------------------------|
---------------------------------------------------------------|
---------------------------------------------------------------|
---------------------------------------------------------------|












comments
We did not receive enough feedback on this tab! Please rate:
print report bad tab
1 2 3 4 5
2 comments total.
0 reply
P_Trik wrote on April 26 2014, 06:12 pm

Beautiful job! Thanks

0 reply
spudoka wrote on April 27 2014, 01:41 pm

Awesome bro!

I want to post or [tab]
guest
You may want to rate the tab now too:
select rating
Please do not post tabs as comments. Select "correction" instead!