Oops, an error
Loading. Please wait.

Necrophobic Tab

ver1
ver1

Solo

Whole song

Interactive

More versions @911Tabs.com
5,957 views 6 this week
1 commentread comment
1 2 3 4 5
accurate
x 5
Autoscroll
+/-
esc
set tempo
stop
Hey! There's an official Ultimate Guitar app which is ideal
for learning songs when you're away from computer. Get the app
WARNING: You are trying to view
                                    content from Ultimate-Guitar.com
                                    in an unauthorized application,
                                    which is prohibited.

                                    Please use an official Ultimate
                                    Guitar Tabs application for iPhone,
                                    iPad or Android to access legitimate
                                    chords, guitar, bass, and drum tabs
                                    from Ultimate-Guitar.com database.

                                    Type "ultimate guitar tabs" in Apple
                                    App Store's or Android Market's
                                    search to find the application.
        SLAYER
                        NECROPHOBIC     
        Tabbed by Grzegorz Musialik (grg@perkele.giga.com.pl)
        Please send corrections, thanks, flames etc. 

   Note: VERY, VERY FAST !!!  :-)

Eb:--------------------------------------|------------------------------------
Bb:--------------------------------------|------------------------------------
Gb:--------------------------------------|------------------------------------
Db:--------------------------------------|------------------------------------
Ab:-0---0-0---0-0-0-0---6p5p3p0--0-0-0-0-|-0---0-0---0-0-0-0---6p5p3p0--0-0-0-
Eb:--------------------------------------|------------------------------------


Eb:--|--------------------------------------|-----------------------------|---
Bb:--|--------------------------------------|-----------------------------|---
Gb:--|--------------------------------------|-----------------------------|---
Db:--|--------------------------------------|---------------------9-------|---
Ab:0-|-0---0-0---0-0-0-0--6p5p3p0--0-0-0-0--|-0-0-0-0--0-0-0-0--8-7--7----|-0-
Eb:--|--------------------------------------|-------------------6----5----|---


Eb:----------------------------------|----------------------------------------
Bb:----------------------------------|----------------------------------------
Gb:----------------------------------|----------------------------------------
Db:------------------------------9---|----------------------------------------
Ab:0-0-0---6p5p3p0---0-0-0-0--8--7---|----------------------------------------
Eb:---------------------------6------|--4-4-4-4---4-4-4-4---5-5-5-5--5-5-5-5--


Eb:|--------------------------------|-------------------------------------|---
Bb:|--------------------------------|-------------------------------------|---
Gb:|--------------------------------|-------------------------------------|---
Db:|--------------------------------|-------------------------------------|---
Ab:|---------------------9--8--7----|-------------------------------------|---
Eb:|-4-4-4-4---4-4-4-4---7--6--5----|-4-4-4-4--4-4-4-4--5-5-5-5--5-5-5-5--|-4-


Eb:------------------------------|---------------------------------------|----
Bb:------------------------------|---------------------------------------|----
Gb:------------------------------|---------------------------------------|----
Db:------------------------------|---------------------------------------|----
Ab:----------------9---8---7-----|-0-0-0-0---0-0-0-0---6p5p3p0--0-0-0-0--|-0-0
Eb:4-4-4--4-4-4-4--7---6---5-----|---------------------------------------|----


Eb:-------------------------------|----------------------------------------|--
Bb:-------------------------------|----------------------------------------|--
Gb:-------------------------------|----------------------------------------|--
Db:-----------------------9-------|----------------------------------------|--
Ab:-0-0---0-0-0-0--8------7-------|-0-0-0-0---0-0-0-0---6p5p3p0---0-0-0-0--|-0
Eb:----------------6--------------|----------------------------------------|--


Eb:--------------------------------|----------------------------------------|-
Bb:--------------------------------|----------------------------------------|-
Gb:--------------------------------|----------------------------------------|-
Db:------------------------9-------|----------------------------------------|-
Ab:-0-0-0---0-0-0-0--8-----7-------|----------------------------------------|-
Eb:------------------6-------------|-4-4-4-4---4-4-4-4---5-5-5-5---5-5-5-5--|-


Eb:------------------------------------|--------------------------------------
Bb:------------------------------------|--------------------------------------
Gb:------------------------------------|--------------------------------------
Db:------------------------------------|--------------------------------------
Ab:--------------------9---8---7-------|--------------------------------------
Eb:-4-4-4-4---4-4-4-4--7---6---5-------|--4-4-4-4---4-4-4-4---5-5-5-5---5-5-5-


Eb:---|----------------------------------|------------------------------------
Bb:---|----------------------------------|------------------------------------
Gb:---|----------------------------------|------------------------------------
Db:---|----------------------------------|------------------------------------
Ab:---|--------------------9---8---7-----|--0---0-0---0-0-0-0---6p5p3p0---0-0-
Eb:5--|-4-4-4-4---4-4-4-4--7---6---5-----|------------------------------------


Eb:-----|----------------------------------------|----------------------------
Bb:-----|----------------------------------------|----------------------------
Gb:-----|----------------------------------------|----------------------------
Db:-----|----------------------------------------|----------------------------
Ab:0-0--|--0---0-0---0-0-0-0--6p5p3p0---0-0-0-0--|-0---0-0---0-0-0-0--6p5p3p0-
Eb:-----|----------------------------------------|----------------------------


Eb:-----------|------------------------------------|--------------------------
Bb:-----------|------------------------------------|--------------------------
Gb:-----------|------------------------------------|--------------------------
Db:-----------|----------------------------9-------|--------------------------
Ab:--0-0-0-0--|-0-0-0-0---0-0-0-0---8------7-------|--------------------------
Eb:-----------|---------------------6--------------|--2h3-3-3---3-3-3-3---3p2-


Eb:---------------|-----------------------------------------|-----------------
Bb:---------------|-----------------------------------------|-----------------
Gb:---------------|-----------------------------------------|-----------------
Db:---------------|-----------------------------------------|-----------------
Ab:---------------|-----------------------------------------|-----------------
Eb:2-2---2-2-2-2--|--2h3-3-3---3-3-3-3---3p1-1-1---1-1-1-1--|-2h3-3-3---3-3-3-

Eb:------------------------|-----------------------------------------|--------
Bb:------------------------|-----------------------------------------|--------
Gb:------------------------|-----------------------------------------|--------
Db:------------------------|-----------------------------------------|--------
Ab:------------------------|-----------------------------------------|--0---0-
Eb:3---3p2-2-2---2-2-2-2---|--2h3-3-3---3-3-3-3---3p1-1-1---1-1-1-1--|--------


Eb:---------------------------------|-----------------------------------------
Bb:---------------------------------|-----------------------------------------
Gb:---------------------------------|-----------------------------------------
Db:---------------------------------|-----------------------------------------
Ab:0---0-0-0-0---6p5p3p0---0-0-0-0--|--0---0-0---0-0-0-0---6p5p3p0---0-0-0-0--
Eb:---------------------------------|-----------------------------------------


Eb:|-----------------------------------------|--------------------------------
Bb:|-----------------------------------------|--------------------------------
Gb:|-----------------------------------------|--------------------------------
Db:|-----------------------------------------|---------------------------9----
Ab:|--0---0-0---0-0-0-0---6p5p3p0---0-0-0-0--|-0-0-0-0---0-0-0-0---8-----7----
Eb:|-----------------------------------------|---------------------6----------


Eb:---|--------------------------------------|--------------------------------
Bb:---|--------------------------------------|--------------------------------
Gb:---|--------------------------------------|--------------------------------
Db:---|--------------------------------------|--------------------------------
Ab:---|--------------------------------------|-------------------9---8---7----
Eb:---|--4-4-4-4--4-4-4-4--5-5-5-5--5-5-5-5--|-4-4-4-4--4-4-4-4--7---6---5----


Eb:--|-----------------------------------------|------------------------------
Bb:--|-----------------------------------------|------------------------------
Gb:--|-----------------------------------------|------------------------------
Db:--|-----------------------------------------|------------------------------
Ab:--|-----------------------------------------|----------------------9---8---
Eb:--|--4-4-4-4---4-4-4-4---5-5-5-5---5-5-5-5--|--4-4-4-4---4-4-4-4---7---6---


Eb:---------|----------------------------------------|------------------------
Bb:---------|----------------------------------------|------------------------
Gb:---------|----------------------------------------|------------------------
Db:---------|----------------------------------------|------------------------
Ab:-7-------|-0-0-0-0---0-0-0-0---6p5p3p0---0-0-0-0--|-0-0-0-0---0-0-0-0---8--
Eb:-5-------|----------------------------------------|---------------------6--


Eb:---------|----------------------------------------|------------------------
Bb:---------|----------------------------------------|------------------------
Gb:---------|----------------------------------------|------------------------
Db:---9-----|----------------------------------------|------------------------
Ab:---7-----|-0-0-0-0---0-0-0-0---6p5p3p0---0-0-0-0--|--0-0-0-0---0-0-0-0--8--
Eb:---------|----------------------------------------|---------------------6--


Eb:----------|-----------------------------------------|----------------------
Bb:----------|-----------------------------------------|----------------------
Gb:----------|-----------------------------------------|----------------------
Db:---9------|-----------------------------------------|----------------------
Ab:---7------|-----------------------------------------|----------------------
Eb:----------|--4-4-4-4---4-4-4-4---5-5-5-5---5-5-5-5--|--4-4-4-4---4-4-4-4---


Eb:------------------|-----------------------------------------|--------------
Bb:------------------|-----------------------------------------|--------------
Gb:------------------|-----------------------------------------|--------------
Db:------------------|-----------------------------------------|--------------
Ab:9---8---7---------|-----------------------------------------|--------------
Eb:7---6---5---------|--4-4-4-4---4-4-4-4---5-5-5-5---5-5-5-5--|--4-4-4-4---4-


Eb:-----------------------|----------------------------------------|----------
Bb:-----------------------|----------------------------------------|----------
Gb:-----------------------|----------------------------------------|----------
Db:-----------------------|----------------------------------------|----------
Ab:--------9---8---7------|-0---0-0---0-0-0-0---6p5p3p0---0-0-0-0--|-0---0-0--
Eb:4-4-4---7---6---5------|----------------------------------------|----------


Eb:------------------------------|----------------------------------------|---
Bb:------------------------------|----------------------------------------|---
Gb:------------------------------|----------------------------------------|---
Db:------------------------------|----------------------------------------|---
Ab:-0-0-0-0---6p5p3p0---0-0-0-0--|-0---0-0---0-0-0-0---6p5p3p0---0-0-0-0--|-0-
Eb:------------------------------|----------------------------------------|---


Eb:------------------------------|-----------------------------------------|--
Bb:------------------------------|-----------------------------------------|--
Gb:------------------------------|-----------------------------------------|--
Db:-----------------------9------|-----------------------------------------|--
Ab:0-0-0---0-0-0-0--7-----7------|-----------------------------------------|--
Eb:-----------------6------------|--2h3-3-3---3-3-3-3---3p2-2-2---2-2-2-2--|--


Eb:---------------------------------------|-----------------------------------
Bb:---------------------------------------|-----------------------------------
Gb:---------------------------------------|-----------------------------------
Db:---------------------------------------|-----------------------------------
Ab:---------------------------------------|-----------------------------------
Eb:2h3-3-3---3-3-3-3---3p1-1-1---1-1-1-1--|-2h3-3-3---3-3-3-3---3p2-2-2---2-2-


Eb:-----|-----------------------------------------|---------------------------
Bb:-----|-----------------------------------------|---------------------------
Gb:-----|-----------------------------------------|---------------------------
Db:-----|-----------------------------------------|---------------------------
Ab:-----|-----------------------------------------|--\5--5---5---5---5-/-4---4
Eb:2-2--|--2h3-3-3---3-3-3-3---3p1-1-1---1-1-1-1--|--\3--3---3---3---3-/-2---2


Eb:-------|-----------------------------------|-------------------------------
Bb:-------|-----------------------------------|-------------------------------
Gb:-------|-----------------------------------|-------------------------------
Db:-------|-----------------------------------|-------------------------------
Ab:---4---|--4-\-5---5---5---5-/-3---3---3----|-\5---5---5---5---5-/-4---4---4
Eb:---2---|--2-\-3---3---3---3-/-1---1---1----|-\3---3---3---3---3-/-2---2---2b


Eb:---|--------------------------------------|-------------------------------|
Bb:---|--------------------------------------|-------------------------------|
Gb:---|--------------------------------------|-------------------------------|
Db:---|--------------------------------------|-------------------------------|
Ab:---|---4-\-5---5---5---5---3--------------|(3)----------------------------|
Eb:---|---2-\-3---3---3---3---1--------------|(1)----------------------------|



  rhy fig 1 (play 4 times)                                  end of rhy fig 1    
Eb:----------------------------------------|---------------------------------|
Bb:----------------------------------------|---------------------------------|
Gb:----------------------------------------|---------------------------------|
Db:----------------------------------------|--------------------------6------|
Ab:----------------------------------------|--------------------5-----4------|
Eb:-2-2-2-2---2-2-2-2---2-2-2-2---2-2-2-2--|-2-2-2-2---2-2-2-2--3------------|

Eb:------------------------------------|--------------------------------------
Bb:------------------------------------|--------------------------------------
Gb:----------------------------------5-|-4------------------------------------
Db:-3--------------------------------3-|-2---2-2---2-2-2-2---2-2-2-2---2-2-2-2
Ab:-1---1-1---1-1-1-1---1-1-1-1---1----|--------------------------------------
Eb:------------------------------------|--------------------------------------


Eb:--|------------------------------------|-----------------------------------
Bb:--|------------------------------------|-----------------------------------
Gb:--|------------------------------------|-----------------------------------
Db:--|----------------------------------6-|-3---------------------------------
Ab:--|-4--------------------------------4-|-5---3-3---3-3-3-3--3-3-3-3--3-3-3-
Eb:--|-2---2-2---2-2-2-2---2-2-2-2---2----|-----------------------------------


Eb:---|-----------------------------------|-----------------------------------
Bb:---|-----------------------------------|-----------------------------------
Gb:---|---------------------------------5-|-4---------------------------------
Db:---|-3-------------------------------3-|-2---2-2---2-2-2-2---2-2-2-2---2-2-
Ab:3--|-1---1-1---1-1-1-1---1-1-1-1---1---|-----------------------------------
Eb:---|-----------------------------------|-----------------------------------


Eb:----|----------------------------------------|-----------------------------
Bb:----|----------------------------------------|-----------------------------
Gb:----|----------------------------------------|-----------------------------
Db:2-2-|----------------------------------------|-----------------------------
Ab:----|-4--------------------------------------|-0---0-0---0-0-0-0---6p5p3p0-
Eb:----|-2---2-2---2-2-2-2---2-2-2-2---2-2-2-2--|-----------------------------


Eb:-----------|-----------------------------------------|---------------------
Bb:-----------|-----------------------------------------|---------------------
Gb:-----------|-----------------------------------------|---------------------
Db:-----------|-----------------------------------------|---------------------
Ab:--0-0-0-0--|--0---0-0---0-0-0-0---6p5p3p0---0-0-0-0--|--0---0-0--0-0-0-0---
Eb:-----------|-----------------------------------------|---------------------


Eb:------------------|---------------------------|----------------------------
Bb:------------------|---------------------------|----------------------------
Gb:------------------|---------------------------|----------------------------
Db:------------------|------------------------9--|----------------------------
Ab:6p5p3p0--0-0-0-0--|-0-0-0-0---0-0-0-0--8---7--|--7---0-0-0-0---6p5p3p0---0-
Eb:------------------|--------------------6------|--5-------------------------


Eb:-------|--------------------------------------|----------------------------
Bb:-------|--------------------------------------|----------------------------
Gb:-------|--------------------------------------|----------------------------
Db:-------|--------------------------------------|----------------------------
Ab:0-0-0--|-0---0-0---0-0-0-0--6p5p3p0--0-0-0-0--|-0---0-0--0-0-0-0--6p5p3p0--
Eb:-------|--------------------------------------|----------------------------

                                         rhy fig 2 (play 3&3/4 times)
Eb:---------|----------------------------|-----------------------------------|
Bb:---------|----------------------------|-----------------------------------|
Gb:---------|----------------------------|-----------------------------------|
Db:---------|-----------------------9----|-----------------------------------|
Ab:0-0-0-0--|-0-0-0-0--0-0-0-0--8---7----|--7-------------------------7---11\|
Eb:---------|-------------------6--------|--5--5-5--5-5-5-5--5-5-5-5--5----9\|


Eb:------------------------------------|--------------------------------|-----
Bb:------------------------------------|--------------------------------|-----
Gb:------------------------------------|--------------------------------|-----
Db:------------------------------------|--------------------------------|-----
Ab:\10-------------------------10--11-\|-9-------------------------9-11\|-8---
Eb:\-8--8-8---8-8-8-8--8-8-8-8--8---9-\|-7--7-7--7-7-7-7--7-7-7-7--7--9\|-6---
                                                             E:-7-7-7-7
                                                                (last time)
                  end of rhy fig 2
Eb:---------------------------------|---------------------------|-------------
Bb:---------------------------------|---------------------------|-------------
Gb:---------------------------------|---------------------------|-------------
Db:---------------------------------|---------------------------|-------------
Ab:---------------------------------|-4\5---5---5---5/4---4---4-|-4\5---5---5-
Eb:6-6--6-6-6-6--6-6-6-6--6-6-6-6---|-2\3---3---3---3/2---2---2-|-2\3---3---3-
                                                                     

Eb:-------------|----------------------------|--------------------------|
Bb:-------------|----------------------------|--------------------------|
Gb:-------------|----------------------------|--------------------------|
Db:-------------|----------------------------|--------------------------|
Ab:-5/3---3---3-|-4\5---5---5---5/4---4---4--|-4\5--5--5---5------------|
Eb:-3/1---1---1-|-2\3---3---3---3/2---2---2--|-2\3--3--3---3------------|
comments
print report bad tab
1 comment total.
0 reply
b.c. warlock926 wrote on June 18 2008, 09:51 pm

this is four stars
some ways to make it better:
label each part
ex: verse chorus ect.
tuning
palm mutes

I want to post or [tab]
guest
You may want to rate the tab now too:
select rating
Please do not post tabs as comments. Select "correction" instead!