Oops, an error
Loading. Please wait.

Snuff Tab

12,563 views 12 this week
10 commentsread comments
1 2 3 4 5
excellent!
x 11
add to favorites launch autoscroll
font size
0
reset
Autoscroll
+/-
esc
set tempo
stop
Contributor
WARNING: You are trying to view
                                    content from Ultimate-Guitar.com
                                    in an unauthorized application,
                                    which is prohibited.

                                    Please use an official Ultimate
                                    Guitar Tabs application for iPhone,
                                    iPad or Android to access legitimate
                                    chords, guitar, bass, and drum tabs
                                    from Ultimate-Guitar.com database.

                                    Type "ultimate guitar tabs" in Apple
                                    App Store's or Android Market's
                                    search to find the application.
SLAYER


snuff


Tabbed by Rudy Guzman


guzman_84@hotmail


   solo 1
eb|-21tp20p17-21tp20p17-21tp20p17-21tp20p17-21tp20p17-21tp20p17-21tp20p17-21tp20p17-|
Bb|---------------------------------------------------------------------------------|
Gb|---------------------------------------------------------------------------------|
Db|---------------------------------------------------------------------------------|
Ab|---------------------------------------------------------------------------------|
Eb|---------------------------------------------------------------------------------|

eb|-22tp20p17-22tp20p17-22tp20p17-22tp20p17-22tp20p17-22tp20p17-22tp20p17-22tp20p17-|
Bb|---------------------------------------------------------------------------------|
Gb|---------------------------------------------------------------------------------|
Db|---------------------------------------------------------------------------------|
Ab|---------------------------------------------------------------------------------|
Eb|---------------------------------------------------------------------------------|

eb|-24tp20p17-24tp20p17-24tp20p17-24tp20p17-22tp20p17-22tp20p17-22tp20p17-22tp20p17-|
Bb|---------------------------------------------------------------------------------|
Gb|---------------------------------------------------------------------------------|
Db|---------------------------------------------------------------------------------|
Ab|---------------------------------------------------------------------------------|
Eb|---------------------------------------------------------------------------------|


                                           wah--------------------------------------------
eb|-22tp20p17-22tp20p17-22tp20p17-21tp17\--16-16-17-19-17-16------------------------------|
Bb|----------------------------------------------------------19-16-17-19-17-16------------|
Gb|----------------------------------------------------------------------------18-15-16-18|
Db|---------------------------------------------------------------------------------------|
Ab|---------------------------------------------------------------------------------------|
Eb|---------------------------------------------------------------------------------------|


   wah----------------------------------------------------------------------------
eb|----------------------------4-4-5-7-5-4--------------------------------------------|
Bb|----------------------------------------7-4-5-4---4-5-4----------2b----------------|
Gb|-16-15-----14-15-14-----------------------------7-------7-4~~~---2b-----3~~~--5~~~-|
Db|--------17----------17-15\---------------------------------------------------------|
Ab|-----------------------------------------------------------------------------------|
Eb|-----------------------------------------------------------------------------------|

eb|------------------------------------------15-16-15-16-15-16-18-16-15-------------------|
Bb|----------------------------------12-14b-----------------------------18-15-16-18-16-15-|
Gb|----------------------12-14-12-14------------------------------------------------------|
Db|----------12-14-12-14------------------------------------------------------------------|
Ab|-12-13-15------------------------------------------------------------------------------|
Eb|---------------------------------------------------------------------------------------|

eb|--------14-15-14-15-14-15-17-15-14-----------------------19-16-16-16-17-17-19-19-16-16-|
Bb|-16-15-----------------------------17-14-15-17-15-14-15--------------------------------|
Gb|---------------------------------------------------------------------------------------|
Db|---------------------------------------------------------------------------------------|
Ab|---------------------------------------------------------------------------------------|
Eb|---------------------------------------------------------------------------------------|

eb|-17-19-19-22-22b\-|
Bb|------------------|
Gb|------------------|
Db|------------------|
Ab|------------------|
Eb|------------------|


   solo 2
eb|---------------4-4-5-7-5-4-------------------------------------------------------------|
Bb|-5b------------------------7-4-5-7-5-4-------------000-44-0-6-00-8-00-6-00-8-00-9-00-8-|
Gb|-7b--7b~~~~~---------------------------5p3---------------------------------------------|
Db|-------------------------------------------5-------------------------------------------|
Ab|----------------------------------------------5~~--------------------------------------|
Eb|---------------------------------------------------------------------------------------|

eb|---------------------------------------------------------------------19b~~~-|
Bb|-00-9-0-12-0-14-0-15-0-14-0-15-0-17-0--16-0-17-0-19-0--18-0-19-0-21---------|
Gb|----------------------------------------------------------------------------|
Db|----------------------------------------------------------------------------|
Ab|----------------------------------------------------------------------------|
Eb|----------------------------------------------------------------------------|

eb|-16p14p12------------16p14p12------------16p14p12------------16p14p12----------|
Bb|-----------16p14p12------------16p14p12------------16p14p12-----------16p14p12-|
Gb|-------------------------------------------------------------------------------|
Db|-------------------------------------------------------------------------------|
Ab|-------------------------------------------------------------------------------|
Eb|-------------------------------------------------------------------------------|

eb|-14-17-14-17-14--15-18-15-18-15--17-20-17-20-17--18-21-18-21-18--19-22-19-22-19-22-22-|
Bb|--------------------------------------------------------------------------------------|
Gb|--------------------------------------------------------------------------------------|
Db|--------------------------------------------------------------------------------------|
Ab|--------------------------------------------------------------------------------------|
Eb|--------------------------------------------------------------------------------------|

eb|-24-24bf-|
Bb|---------|
Gb|---------|
Db|---------|
Ab|---------|
Eb|---------|

  verse                                             x4
eb|---------------------------------------------------|
Bb|---------------------------------------------------|
Gb|---------------------------------------------------|
Db|---------------------------------------------------|
Ab|-2--------3/7-6---------3/6-5--------3/6-----------|
Eb|-0-000000-1/5-4-0000000-1/4-3-000000-1/4-3333333-1-|

   gt1                                                                 x2
eb|----------------------------------------------------------------------|
Bb|----------------------------------------------------------------------|
Gb|------------------4-5-4h5p4---4-5-4-------------------4-5-4---4-5-4/2-|
Db|-5-----3-6------5-----------6-------6-5-----3-6-----5-------6---------|
Ab|----------------------------------------------------------------------|
Eb|---0-0-----0-0--------------------------0-0-----0-0-------------------|

   gt2 (play the second time with gt1)
eb|----------------------------------------------------------------------|
Bb|----------------------------------------------------------------------|
Gb|----------------------------------------------------------------------|
Db|----------------------------------------------------------------------|
Ab|------------------2-3-2h3p2---2-3-2-------------------2-3-2---2-3-2-0-|
Eb|-3-0-0-1-4-0-0--3-----------4-------4-3-0-0-1-4-0-0-3-------4---------|

                                x4
eb|------------------------------|
Bb|------------------------------|
Gb|------------------------------|
Db|------------------------------|
Ab|-2-----5/7-----3/5-----3/6666-|
Eb|-0-000-3/5-000-1/3-000-1/4444-|


  verse                                             x4
eb|---------------------------------------------------|
Bb|---------------------------------------------------|
Gb|---------------------------------------------------|
Db|---------------------------------------------------|
Ab|-2--------3/7-6---------3/6-5--------3/6-----------|
Eb|-0-000000-1/5-4-0000000-1/4-3-000000-1/4-3333333-1-|

   gt1                                                                 x2
eb|----------------------------------------------------------------------|
Bb|----------------------------------------------------------------------|
Gb|------------------4-5-4h5p4---4-5-4-------------------4-5-4---4-5-4/2-|
Db|-5-----3-6------5-----------6-------6-5-----3-6-----5-------6---------|
Ab|----------------------------------------------------------------------|
Eb|---0-0-----0-0--------------------------0-0-----0-0-------------------|

   gt2 (play the second time with gt1)
eb|----------------------------------------------------------------------|
Bb|----------------------------------------------------------------------|
Gb|----------------------------------------------------------------------|
Db|----------------------------------------------------------------------|
Ab|------------------2-3-2h3p2---2-3-2-------------------2-3-2---2-3-2-0-|
Eb|-3-0-0-1-4-0-0--3-----------4-------4-3-0-0-1-4-0-0-3-------4---------|

                                  x3
eb|---------------------------------|
Bb|---------------------------------|
Gb|---------------------------------|
Db|---------------------------------|
Ab|-2-----5/7-----3/5---------------|
Eb|-0-000-3/5-000-1/3-0-0-0-0-0-0-0-|


eb|-----------------------------|
Bb|-----------------------------|
Gb|-----------------------------|
Db|-----------------------------|
Ab|-3/5-----5/7-----3/5-----8-8-|
Eb|-1/3-000-3/5-000-1/3-0-0-6-6-|


   solo 3
   wah-----------------------------------------------------------
eb|------------------------------------------15\--12\-----------------18-18bf-18b~~--21-|
Bb|----------------------------------------------------13\--12~~~~\---------------------|
Gb|-----9h11p9----9h11p9----9h11~~-11-10-10---------------------------------------------|
Db|-/11--------11--------11-------------------------------------------------------------|
Ab|-------------------------------------------------------------------------------------|
Eb|-------------------------------------------------------------------------------------|


eb|-21bf-21b~~~---16-21-19p16-19p16-21-19p16-19p16-21-19p16-19p16-21-19p16-19p16-21-|
Bb|---------------------------------------------------------------------------------|
Gb|---------------------------------------------------------------------------------|
Db|---------------------------------------------------------------------------------|
Ab|---------------------------------------------------------------------------------|
Eb|---------------------------------------------------------------------------------|

eb|-19p16-19p16-21-19p16-19p16------------------------------------------------------------|
Bb|----------------------------19bf-19b~~-17-17bf-17~~---------------------------------19-|
Gb|---------------------------------------------------------------------16h17p16----16----|
Db|---------------------------------------------------------------15-18----------18-------|
Ab|---------------------------------------------------------14-17-------------------------|
Eb|------------------------------------------------------16-------------------------------|

eb|--------------|
Bb|-19bf-19~~~~~-|
Gb|--------------|
Db|--------------|
Ab|--------------|
Eb|--------------|

eb|---------------------------------------------------------------------------------------|
Bb|-19b~~~~---5~~--0--4~~~~---0--2~~~--0--------------------------------------------------|
Gb|----------------------------------------4b~~~~-0h2p0h2ahp02ahp0h2ahp02ahp0h2p0h2p0h2p0-|
Db|---------------------------------------------------------------------------------------|
Ab|---------------------------------------------------------------------------------------|
Eb|---------------------------------------------------------------------------------------|

   bar/////
eb|--------------|
Bb|--------------|
Gb|--------------|
Db|-0------------|
Ab|--------------|
Eb|--------------|

                                                                   x2
eb|------------------------------------------------------------------|
Bb|-0-7p6p4-0-7p6p4-0-7p6p4-0-7p6p4--0-6p5p3-0-6p5p3-0-6p5p3-0-6p5p3-|
Gb|------------------------------------------------------------------|
Db|------------------------------------------------------------------|
Ab|------------------------------------------------------------------|
Eb|------------------------------------------------------------------|

eb|---------------------18b--18p16-------|
Bb|------14b-------17b-------------18~~~-|
Gb|-11b-------15b------------------------|
Db|--------------------------------------|
Ab|--------------------------------------|
Eb|--------------------------------------|

eb|-------------------------------------------------------------------------------|
Bb|-0-19p18p16-0-19p18p16-0-19p18p16-0-19p18p16--0-18p17p15-0-18p17p15-0-18p17p15-|
Gb|-------------------------------------------------------------------------------|
Db|-------------------------------------------------------------------------------|
Ab|-------------------------------------------------------------------------------|
Eb|-------------------------------------------------------------------------------|

eb|--------------------------------------------------------------------------------------|
Bb|-0-18p17p15-0-19p18p16-0-20p18p17-0-21p19p18-0-22p20p19-0-23p21p20-0-24p23p21-24b~~~--|
Gb|--------------------------------------------------------------------------------------|
Db|--------------------------------------------------------------------------------------|
Ab|--------------------------------------------------------------------------------------|
Eb|--------------------------------------------------------------------------------------|


                                   x4
eb|-----------------------------------|
Bb|-----------------------------------|
Gb|-----------------------------------|
Db|-----------------------------------|
Ab|-2----------5----------------6-5-3-|
Eb|-0-0-0-0-0--3-0-0-0-0-0-0-0--4-3-1-|


eb|------------------------------|
Bb|------------------------------|
Gb|------------------------------|
Db|------------------------------|
Ab|-2-----5/7-----3/5-----3/6666-|
Eb|-0-000-3/5-000-1/3-000-1/4444-|

eb|-----------------------------|
Bb|-----------------------------|
Gb|-----------------------------|
Db|-----------------------------|
Ab|-2-----5/7-----3/5-----5/8-8-|
Eb|-0-000-3/5-000-1/3-000-3/6-6-|


eb|------------------------------------------------------------------|
Bb|-0-7p6p4-0-7p6p4-0-7p6p4-0-7p6p4--0-6p5p3-0-6p5p3-0-6p5p3-0-6p5p3-|
Gb|------------------------------------------------------------------|
Db|------------------------------------------------------------------|
Ab|------------------------------------------------------------------|
Eb|------------------------------------------------------------------|

eb|---------------------18b--18p16-------|
Bb|------14b-------17b-------------18~~~-|
Gb|-11b-------15b------------------------|
Db|--------------------------------------|
Ab|--------------------------------------|
Eb|--------------------------------------|

eb|-------------------------------------------------------------------------------|
Bb|-0-19p18p16-0-19p18p16-0-19p18p16-0-19p18p16--0-18p17p15-0-18p17p15-0-18p17p15-|
Gb|-------------------------------------------------------------------------------|
Db|-------------------------------------------------------------------------------|
Ab|-------------------------------------------------------------------------------|
Eb|-------------------------------------------------------------------------------|

eb|--------------------------------------------------------------------------------------|
Bb|-0-18p17p15-0-19p18p16-0-20p18p17-0-21p19p18-0-22p20p19-0-23p21p20-0-24p23p21-24b~~~--|
Gb|--------------------------------------------------------------------------------------|
Db|--------------------------------------------------------------------------------------|
Ab|--------------------------------------------------------------------------------------|
Eb|--------------------------------------------------------------------------------------|


                                   x8
eb|-----------------------------------|
Bb|-----------------------------------|
Gb|-----------------------------------|
Db|-----------------------------------|
Ab|-2----------5----------------6-5-3-|
Eb|-0-0-0-0-0--3-0-0-0-0-0-0-0--4-3-1-|


eb|--------------|
Bb|--------------|
Gb|--------------|
Db|--------------|
Ab|-2----------5-|
Eb|-0-0-0-0-0--3-|



hillo son mex
29/10/09
comments
print report bad tab
10 comments total. Showing first comments.
-2 reply
ShredHead396 wrote on November 1 2009, 08:39 am

Looks pretty good but i have not tried it, 3/5?

+1 reply
Marcus 90 wrote on September 6 2010, 09:30 am

I listened to the song while reading you're tab, and this tab is 100% correct, truly deserves 5 stars. Do you think you can copy this tab to a guitar pro 5 format, ive been looking for a guitar pro tab for this song very long, and i would really like to learn this song, anyway great job with the tab.

-2 reply
Kellingso wrote on September 13 2011, 09:08 am

3/5 sums it up.. there are alot of mistakes..even in the beginning

I want to post or [tab]
guest
You may want to rate the tab now too:
select rating
Please do not post tabs as comments. Select "correction" instead!