Oops, an error
Loading. Please wait.

South Of Heaven Tab

ver1
ver1

Intro

Album

Whole song

More versions @911Tabs.com
135,081 views 397 this week
1 commentread comment
1 2 3 4 5
accurate
x 12
Autoscroll
+/-
esc
set tempo
stop
Contributor
WARNING: You are trying to view
                                    content from Ultimate-Guitar.com
                                    in an unauthorized application,
                                    which is prohibited.

                                    Please use an official Ultimate
                                    Guitar Tabs application for iPhone,
                                    iPad or Android to access legitimate
                                    chords, guitar, bass, and drum tabs
                                    from Ultimate-Guitar.com database.

                                    Type "ultimate guitar tabs" in Apple
                                    App Store's or Android Market's
                                    search to find the application.
slayer south of heaven 
i mixed this shit up 
mix by joe adzhiyev
Tune down 1/2 step to Eb Ab Db Gb Bb Eb

INTRO:
RIFF 1: (*4 times)
Gtr.1Eb||-------------------------------------------------|-------------------------------------------------||
     Bb||-------------------------------------------------|-------------------------------------- trill ----||
     Gb||-------------9~~~~----8--------7-----7--6~~~~~~--|-------------9~~~~----8--------7-----6h7p6h7p6~~-||
     Db||-------9--10-------10-------9-----8--------------|-------9--10-------10-------9-----8--------------||
     Ab||----7--------------------------------------------|----7--------------------------------------------||
     Eb||-0-----------------------------------------------|-0-----------------------------------------------||
       ||                                                 |                                                 ||
Gtr.2Eb||-------------------------------------------------|-------------------------------------------------||
     Bb||-------------------------------------------------|-------------------------------------- trill ----||
     Gb||-------------4~~~~----3--------2-----2--1~~~~~~--|-------------4~~~~----3--------2-----1h2p1h2p1~~-||
     Db||-------4--5--------5--------4-----3--------------|-------4--5--------5--------4-----3--------------||
     Ab||----7--------------------------------------------|----7--------------------------------------------||
     Eb||-0-----------------------------------------------|-0-----------------------------------------------||
Starting from 3rd repeat, add guitar 3, which plays natural harmonics and articulates them with tremolo bar.
RIFF 2: (*2 times)
Gtr.1Eb||-------------------------------------------------|-------------------------------------------------||
     Bb||-------------------------------------------------|-------------------------------------------------||
     Gb||-------------------------------------------------|-------------------------------------------------||
     Db||-2-----------------------------------------------|-2-----------------------------------------------||
     Ab||-2-----------------------------------------------|-2-----------------------------------------------||
     Eb||-0-----------------------------------------------|-0-----------------------------------------------||
       ||                                                 |                                                 ||
Gtr.2Eb||-------------------------------------------------|-------------------------------------------------||
     Bb||-------------------------------------------------|-------------------------------------- trill ----||
     Gb||-------------4--------3--------2-----2--1~~~~~~--|-------------4--------3--------2-----1h2p1h2p1~~-||
     Db||-------2--5--------5--------4-----3--------------|-------2--5--------5--------4-----3--------------||
     Ab||----2--------------------------------------------|----2--------------------------------------------||
     Eb||-0-----------------------------------------------|-0-----------------------------------------------||
VERSE 1:
      An unforeseen future nestled somewhere in time.      Unsuspecting victims,no warnings,no signs.
Gtr.1Eb|--------------------------------------------------|-------------------------------------------------|
     Bb|--------------------------------------------------|-------------------------------------------------|
     Gb|--------------------------------------------------|-------------------------------------------------|
     Db|--------------------------------------------------|-------------------------------------------------|
     Ab|--------------------------------------------------|-------------------------------------------------|
     Eb|--0--0--0--0--0--0--0--0--0--0--0--0--0--0--0--0--|-0--0--0--0--0--0--0--0--0--0--0--0--0--0--0--0--|
       |  .  .  .  .  .  .  .  .  .  .  .  .  .  .  .  .  | .  .  .  .  .  .  .  .  .  .  .  .  .  .  .  .  |
Gtr.2Eb|--------------------------------------------------|-------------------------------------------------|
     Bb|--------------------------------------------------|-------------------------------------- trill ----|
     Gb|--------------4--------3--------2-----2--1~~~~~~--|-------------4--------3--------2-----1h2p1h2p1~~-|
     Db|--------2--5--------5--------4-----3--------------|-------2--5--------5--------4-----3--------------|
     Ab|-----2--------------------------------------------|----2--------------------------------------------|
     Eb|--0-----------------------------------------------|-0-----------------------------------------------|
 
              Judgment day,the second coming arrives.         Before you see the light,  you must die!
Gtr.1Eb|--------------------------------------------------|-------------------------------------------------|
     Bb|--------------------------------------------------|-------------------------------------------------|
     Gb|--------------------------------------------------|-------------------------------------------------|
     Db|--------------------------------------------------|-------------------------------------------------|
     Ab|--------------------------------------------------|---------------------------------------------sl--|
     Eb|--0--0--0--0--0--0--0--0--0--0--0--0--0--0--0--0--|-0--0--0--0--0--0--0--0--0--0--0--0--0--0--12\---|
       |  .  .  .  .  .  .  .  .  .  .  .  .  .  .  .  .  | .  .  .  .  .  .  .  .  .  .  .  .  .  .        |
Gtr.2Eb|--------------------------------------------------|-------------------------------------------------|
     Bb|--------------------------------------------------|-------------------------------------- trill ----|
     Gb|--------------4--------3--------2-----2--1~~~~~~--|-------------4--------3--------2-----1h2p1h2p1~~-|
     Db|--------2--5--------5--------4-----3--------------|-------2--5--------5--------4-----3--------------|
     Ab|-----2--------------------------------------------|----2--------------------------------------------|
     Eb|--0-----------------------------------------------|-0-----------------------------------------------|
RIFF 2A (play 2 times):
Gtr.1Eb||-------------------------------------------------|-------------------------------------------------||
     Bb||-------------------------------------------------|-------------------------------------- trill ----||
     Gb||-------------9~~~~----8--------7-----7--6~~~~~~--|-------------9~~~~----8--------7-----6h7p6h7p6~~-||
     Db||-------9--10-------10-------9-----8--------------|-------9--10-------10-------9-----8--------------||
     Ab||----7--------------------------------------------|----7--------------------------------------------||
     Eb||-0-----------------------------------------------|-0-----------------------------------------------||
       || .  .                                            | .  .                                            ||
Gtr.2Eb||-------------------------------------------------|-------------------------------------------------||
     Bb||-------------------------------------------------|-------------------------------------- trill ----||
     Gb||-------------4--------3--------2-----2--1~~~~~~--|-------------4--------3--------2-----1h2p1h2p1~~-||
     Db||-------2--5--------5--------4-----3--------------|-------2--5--------5--------4-----3--------------||

     Ab||----2--------------------------------------------|----2--------------------------------------------||
     Eb||-0-----------------------------------------------|-0-----------------------------------------------||
RIFF 3:
Gtr.1Eb|--------------------------------------------------|-------------------------------------------------|
     Bb|--------------------------------------------------|-------------------------------------------------|
     Gb|--------------------------------------------------|---------------------------------------10-10\----|
     Db|--2-----------------------------------------------|-2-------------------------------------10-10\-sl-|
     Ab|--2-----------------------------------------------|-2--------------------------------------8--8\----|
     Eb|--0-----------------------------------------1--1--|-0-----------------------------------------------|
       |  >                                         .  .  | >                                      >  >     |
Gtr.2Eb|--------------------------------------------------|-------------------------------------------------|
     Bb|--------------------------------------------------|-------------------------------------------------|
     Gb|--------------------------------------------------|-------------------------------------------------|
     Db|--------------------------------------------------|-------------------------------------------------|
     Ab|-----------10-------8-----7--------10-------------|----------10-------8-----7--------10-------------|
     Eb|--0--0--0--0--0--0--0--0--0--0--0--0--0--0--1--1--|-0--0--0--0--0--0--0--0--0--0--0--0--0--0--1--1--|
          .  .  .  >  .  .  >  .  >  .  .  >  .  .  .  .    .  .  .  >  .  .  >  .  >  .  .  >  .  .  .  .
 
Gtr.1Eb|--------------------------------------------------|-------------------------------------------------|
     Bb|--------------------------------------------------|-------------------------------------------------|
     Gb|--------------------------------------------10----|-------------------------------------------------|
     Db|--2-----------------------------------------10----|-------------------------------------------------|
     Ab|--2-----------------------------------------8-----|-7--7--7--7--7--7--7--7--7--7--7--7--7--7--7--7--|
     Eb|--0-----------------------------------------------|-0--0--0--0--0--0--0--0--0--0--0--0--0--0--0--0--|
       |  >                                         >     | .  .  .  .  .  .  .  .  .  .  .  .  .  .  .     |
Gtr.2Eb|--------------------------------------------------|-------------------------------------------------|
     Bb|--------------------------------------------------|-------------------------------------------------|
     Gb|--------------------------------------------------|-------------------------------------------------|
     Db|--------------------------------------------------|-------------------------------------------------|
     Ab|-----------10-------8-----7--------10-------------|----------10-------8-----7--------10-------------|
     Eb|--0--0--0--0--0--0--0--0--0--0--0--0--0--0--1--1--|-0--0--0--0--0--0--0--0--0--0--0--0--0--0--1--1--|
          .  .  .  >  .  .  >  .  >  .  .  >  .  .  .  .    .  .  .  >  .  .  >  .  >  .  .  >  .  .  .  .
Increase tempo: 138
VERSE 2:
    Forgotten     children con  -  fo - orm   a  new  fa - ith,       a -   
Gtr.1Eb|---------------------------------|---------------------------------|
Gtr.2Hb|---------------------------------|---------------------------------|
     Gb|---------------------------------|---------------------------------|
     Db|-------------5-----------3-------|-------------5-----------3-------|
     Ab|-------------5-----------3-------|-------------5-----------3-------|
     Eb|-0-0-0---0---3---0---0---1---0---|-0-0-0---0---3---0-0-0---1-------|
        . . .   .   >   .   .   >   .     . . .   .   >   . . .   >
       vidity   and  lust  con  -  trolled   by     ha - te.          The 
Gtr.1Eb|---------------------------------|---------------------------------|
Gtr.2Hb|---------------------------------|---------------------------------|
     Gb|---------------------------------|---------------------------------|
     Db|-------------5-----------3-------|-------------5-----------3-------|
     Ab|-------------5-----------3-------|-------------5-----------3-------|
     Eb|-0-0-0---0---3---0---0---1---0---|-0-0-0---0---3---0-0-0---1-------|
        . . .   .   >   .   .   >   .     . . .   .   >   . . .   >
       never ending search for yo - ur  shattered    sanity.     
Gtr.1Eb|---------------------------------|---------------------------------|
Gtr.2Hb|---------------------------------|---------------------------------|
     Gb|---------------------------------|---------------------------------|
     Db|-------------5-----------3-------|-------------5-----------3-------|
     Ab|-------------5-----------3-------|-------------5-----------3-------|
     Eb|-0-0-0---0---3---0---0---1---0---|-0-0-0---0---3---0-0-0---1-------|
        . . .   .   >   .   .   >   .     . . .   .   >   . . .   >
       Souls of Dam  -  nation in their own  re   -   a - lity.
Gtr.1Eb|---------------------------------|---------------------------------|
Gtr.2Hb|---------------------------------|---------------------------------|
     Gb|---------------------------------|---------------------------------|
     Db|-------------5-----------3-------|-------------5-----------3-------|
     Ab|-------------5-----------3-------|-------------5-----------3-------|
     Eb|-0-0-0---0---3---0---0---1---0---|-0-0-0---0---3---0-0-0---1-------|
        . . .   .   >   .   .   >   .     . . .   .   >   . . .   >
PRE-CHORUS: (Gtr.3 adds tremolo bar effects)
      Cha - os        ram - pant, an   age  of  dis - trust.
Gtr.1Eb|---------------------------------|---------------------------------|
Gtr.2Hb|---------------------------------|---------------------------------|
     Gb|---------------------------------|---------------------------------|
     Db|---------------------------------|-------------------------5-------|
     Ab|-4---------------4---------------|-4-------4-------4-------5-------|
     Eb|-2---2---2-2-2---2---2---6\--0---|-2-2-2---2-2-2---2-2-2-2-3-------|
        >   .   . . .   >   .   >         > . .   > . .   > . . . >
        Confron  -  ta  -  tions.   Im - pulsive     ha   -  bi   -  tat. 
Gtr.1Eb|---------------------------------|---------------------------------|
Gtr.2Hb|---------------------------------|---------------------------------|
     Gb|---------------------------------|-----------------3---------------|
     Db|---------------------------------|-----------------3---------------|
     Ab|-4-------4-------4---------------|-4-------4-------1---------------|
     Eb|-2-2-2---2-2-2---2-2-2---5\--0---|-2-2-2---2-2-2-0-----3---2---1---|
        > . .   . . .   > . .   >         > . .   > . . . >
Tempo: slow (63)
REPEAT RIFF 2A (*2 times)
RIFF 3A:
Gtr.1Eb|--------------------------------------------------|-------------------------------------------------|
     Bb|--------------------------------------------------|-------------------------------------------------|
     Gb|--------------------------------------------10----|-9----------------------------------------10-----|
     Db|--2-----------9-----------------------------10----|-9-----------9----------------------------10-----|
     Ab|--2--------10-------8-----7--------10-------8-----|-7--------10-------8-----7--------10-------8-----|
     Eb|--0--------------0--0--0--0--0--0--0--0--0--------|----0--0--0--0--0--0--0--0--0--0--0--0--0--------|
       |  >           .  .  >  .  >  .  .  >  .  .  >     | >  .  .  >  >  .  >  .  >  .  .  >  .  .  >     |
Gtr.2Eb|--------------------------------------------------|-------------------------------------------------|
     Bb|--------------------------------------------------|-------------------------------------------------|
     Gb|--------------------------------------------------|-------------------------------------------10----|
     Db|--------------------------------------------------|-------------------------------------------10----|
     Ab|-----------10-------8-----7--------10-------------|----------10-------8-----7--------10-------8-----|
     Eb|--0--0--0--0--0--0--0--0--0--0--0--0--0--0--1--1--|-0--0--0--0--0--0--0--0--0--0--0--0--0--0--------|
          .  .  .  >  .  .  >  .  >  .  .  >  .  .  .  .    .  .  .  >  .  .  >  .  >  .  .  >  .  .  >
Increase tempo: 138
VERSE 3:
       Bas - tard    sons      be  -  gat   your cunting daughters.  Pro -
Gtr.1Eb|---------------------------------|---------------------------------|
Gtr.2Hb|---------------------------------|---------------------------------|
     Gb|---------------------------------|---------------------------------|
     Db|-------------5-----------3-------|-------------5-----------3-------|
     Ab|-------------5-----------3-------|-------------5-----------3-------|
     Eb|-0-0-0---0---3---0---0---1---0---|-0-0-0---0---3---0-0-0---1-------|
        . . .   .   >   .   .   >   .     . . .   .   >   . . .   >
       miscu - ous mothers with your in - cestu - ous fathers.   
Gtr.1Eb|---------------------------------|---------------------------------|
Gtr.2Hb|---------------------------------|---------------------------------|
     Gb|---------------------------------|---------------------------------|
     Db|-------------5-----------3-------|-------------5-----------3-------|
     Ab|-------------5-----------3-------|-------------5-----------3-------|
     Eb|-0-0-0---0---3---0---0---1---0---|-0-0-0---0---3---0-0-0---1-------|
        . . .   .   >   .   .   >   .     . . .   .   >   . . .   >
        Engreat   so - uls  con  -  demned   for  all eternity.      Ob -     
Gtr.1Eb|---------------------------------|---------------------------------|
Gtr.2Hb|---------------------------------|---------------------------------|
     Gb|---------------------------------|---------------------------------|
     Db|-------------5-----------3-------|-------------5-----------3-------|
     Ab|-------------5-----------3-------|-------------5-----------3-------|
     Eb|-0-0-0---0---3---0---0---1---0---|-0-0-0---0---3---0-0-0---1-------|
        . . .   .   >   .   .   >   .     . . .   .   >   . . .   >
        tained by immoral observance a domine - ering de - i - ty. 
Gtr.1Eb|---------------------------------|---------------------------------|
Gtr.2Hb|---------------------------------|---------------------------------|
     Gb|---------------------------------|---------------------------------|
     Db|-------------5-----------3-------|-------------5-----------3-------|
     Ab|-------------5-----------3-------|-------------5-----------3-------|
     Eb|-0-0-0---0---3---0---0---1---0---|-0-0-0---0---3---0-0-0---1-------|
        . . .   .   >   .   .   >   .     . . .   .   >   . . .   >
PRE - CHORUS
CHORUS:
               On  and  on, south of hea  -  ven.  
Gtr.1Eb|---------------------------------|---------------------------------|
Gtr.2Hb|---------------------------------|---------------------------------|
     Gb|---------------------------------|---------------------1---2~~~~~--|
     Db|---------6-------5-----------5---|-4-------------------2---3~~~~~--|
     Ab|---------6-------5-----------5---|-4-------------------------------|
     Eb|-0---0---4-------3---0---0---3---|-2---0---0---0---0---------------|
        .   .   >       >   .   .   >     >   .   .   .   .   >   >
               On  and  on, south of hea  -  ven.  
Gtr.1Eb|---------------------------------|---------------------------------|
Gtr.2Hb|---------------------------------|---------------------------------|
     Gb|---------------------------------|---------------------1---2~~~~~--|
     Db|---------6-------5-----------5---|-4-------------------2---3~~~~~--|
     Ab|---------6-------5-----------5---|-4-------------------------------|
     Eb|-0---0---4-------3---0---0---3---|-2---0---0---0---0---------------|
        .   .   >       >   .   .   >     >   .   .   .   .   >   >
               On  and  on, south of hea  -  ven.  
Gtr.1Eb|---------------------------------|---------------------------------|
Gtr.2Hb|---------------------------------|---------------------------------|
     Gb|---------------------------------|---------------------1---2~~~~~--|
     Db|---------6-------5-----------5---|-4-------------------2---3~~~~~--|
     Ab|---------6-------5-----------5---|-4-------------------------------|
     Eb|-0---0---4-------3---0---0---3---|-2---0---0---0---0---------------|
        .   .   >       >   .   .   >     >   .   .   .   .   >   >
               On  and  on, south of hea  -  ven.  
Gtr.1Eb|---------------------------------|---------------------------------|
     Hb|--------------------------- N.H.-|---------------------------------|
     Gb|----------------------------?5>--|---------------------------------|
     Db|---------6-------5---------------|---------------------------------|
     Ab|---------6-------5---------------|--- depress tremolo bar ---------|
     Eb|-0---0---4-------3---0---0-------|-6-\\\\\\\\\\\\\\\\\\\\\\--------|
       | .   .   >       >   .   .       |                                 |
Gtr.2Eb|---------------------------------|---------------------------------|
     Hb|---------------------------------|---------------------------------|
     Gb|---------------------------------|---------------------9---10~~~~--|
     Db|---------6-------5-----------5---|-4-------------------------------|
     Ab|---------6-------5-----------5---|-4-------------------7---8-------|
     Eb|-0---0---4-------3---0---0---3---|-2---0---0---0---0---------------|
         .   .   >       >   .   .   >     >   .   .   .   .   >   >


SONG: Silent Scream 
ARTIST: Slayer
ALBUM: South Of Heaven
Tabbed by: David Lichter (lichter@ebox.tninet.se)


Tune down 1/2 step.

Intro:
Eb|-----------------------------------|
Bb|-----------------------------------|
Gb|-----------------------------------|
Db|--------------------------4--3-----|
Ab|--------------------------2--1-----|
Eb|-0-0-0-0-0-0-0-0-0-0-0-0-----------|
 PM|-----------------------|

  Nightmare, the persecution...
Eb|--------------------------------|
Bb|--------------------------------|
Gb|--------------------------------|
Db|----9----8----------------------|
Ab|-7---10---9--8/10--7------------|
Eb|--------------------------------|

   
Chorus:
   Silent scream, bury the...
Eb|--------------------------------|
Bb|--------------------------------|
Gb|--------------------------------|
Db|--4----3------------------------|
Ab|--2----1------------------------|
Eb|--------------------------------|

Eb|--------------------------------|
Bb|--------------------------------|
Gb|--------------------------------|
Db|-4--2--4--2--4--2--4--5---------|
Ab|-2--0--2--0--2--0--2--3---------|
Eb|--------------------------------|

   Beaten and torn, sacrifice the... 
Eb|--------------------------------|
Bb|--------------------------------|
Gb|--------------------------------|
Db|--4----3------------------------|
Ab|--2----1------------------------|
Eb|--------------------------------|

Eb|---------------------------|
Bb|---------------------------|
Gb|---------------------------|
Db|-4--2--4--2--4--2--4--5----|
Ab|-2--0--2--0--2--0--2--3----|
Eb|---------------------------|

Eb|-------------------------------|
Bb|-------------------------------|
Gb|-------------------------------|
Db|--9--7--9--7--9--7--9--10------|
Ab|--7--5--7--5--7--5--7--8-------|
Eb|-------------------------------|

  Shattered, adolescent...
Eb|--------------------------------|
Bb|--------------------------------|
Gb|--------------------------------|
Db|----9----8----------------------|
Ab|-7---10---9--8/10--7------------|
Eb|--------------------------------|


   Silent scream, crucify bastard...
Eb|--------------------------------|
Bb|--------------------------------|
Gb|--------------------------------|
Db|--4----3------------------------|
Ab|--2----1------------------------|
Eb|--------------------------------|

Eb|--------------------------------|
Bb|--------------------------------|
Gb|--------------------------------|
Db|-4--2--4--2--4--2--4--5---------|
Ab|-2--0--2--0--2--0--2--3---------|
Eb|--------------------------------|

   Beaten and torn, sanctify lives..
Eb|--------------------------------|
Bb|--------------------------------|
Gb|--------------------------------|
Db|--4----3------------------------|
Ab|--2----1------------------------|
Eb|--------------------------------|

Eb|---------------------------|
Bb|---------------------------|
Gb|---------------------------|
Db|-4--2--4--2--4--2--4--5----|
Ab|-2--0--2--0--2--0--2--3----|
Eb|---------------------------|

Eb|-------------------------------|
Bb|-------------------------------|
Gb|-------------------------------|
Db|--9--7--9--7--9--7--9--10------|
Ab|--7--5--7--5--7--5--7--8-------|
Eb|-------------------------------|


Solo

After the solo it's a riff that I couldn't tab out

Eb|-----------------------------------|
Bb|-----------------------------------|
Gb|-----------------------------------|
Db|--------------------------4--3-----|
Ab|--------------------------2--1-----|
Eb|-0-0-0-0-0-0-0-0-0-0-0-0-----------|
 PM|-----------------------|


Nightmare, the persecution...
Eb|--------------------------------|
Bb|--------------------------------|
Gb|--------------------------------|
Db|----9----8----------------------|
Ab|-7---10---9--8/10--7------------|
Eb|--------------------------------|

   Innocence with drawn in fear...
Eb|--------------------------------|
Bb|--------------------------------|
Gb|--------------------------------|
Db|--4----3------------------------|
Ab|--2----1------------------------|
Eb|--------------------------------|

Eb|--------------------------------|
Bb|--------------------------------|
Gb|--------------------------------|
Db|-4--2--4--2--4--2--4--5---------|
Ab|-2--0--2--0--2--0--2--3---------|
Eb|--------------------------------|

   Fires burning can you hear...
Eb|--------------------------------|
Bb|--------------------------------|
Gb|--------------------------------|
Db|--4----3------------------------|
Ab|--2----1------------------------|
Eb|--------------------------------|
      cries...
Eb|---------------------------|
Bb|---------------------------|
Gb|---------------------------|
Db|-4--2--4--2--4--2--4--5----|
Ab|-2--0--2--0--2--0--2--3----|
Eb|---------------------------|

   ...in the night.
Eb|-------------------------------|
Bb|-------------------------------|
Gb|-------------------------------|
Db|--9--7--9--7--9--7--9----------|
Ab|--7--5--7--5--7--5--7----------|
Eb|-------------------------------|


This song wasn't easy to tab out.

                       SLAYER - LIVE UNDEAD
                          From the Album SOUTH OF HEAVEN     
                        Copyright 1988 DEF JAM RECORDINGS
                      
                           Version 1.0 - October 1998

Transcription By: David Schellhaas

For Questions, Comments, Newest Version, or Corrections contact
        David Schellhaas at: dschellhaas@hotmail.com

Check out 's Death/Black Tab Webpage at
        

join the death/black tab emailing list by
        emailing 

.  - palm mute                  /  - slide up to
\  - slide down to              ~  - vibrato             
h  - hammer on                  b  - bend 
p  - pull off                        Suffixes for bend    
ph - pinch harmonic                      f - full bend    h - half bend
*  - see comment                         r - release      t - tap bend
X  - percussion mute                     ~ - vibrato bend
@  - slight palm mute           () - ghost note, sustained note

Tuning: Eb(Eb,Ab,Db,Gb,Bb,Eb)

Intro.-
|-----------------------------------|
|-----------------------------------|
|-9------8------------7-------------|
|-9------8------------7-------------|
|-7------6-----6h9p6--5-------------|
|---0000---00-----------0000-6-5----|
  pm----   --           ----  

Verse (there are a few variations, but it's all w/these notes)-
|--------------------------------------------------|
|--------------------------------------------------|
|--------------------------------------------------|
|--------------------------------------------------|
|-7-----7-----7-----7-----8-----8-----8-----8------|
|---777---777---777---777---888---888---888---888--|
  pm---   ---   ---   ---   ---   ---   ---   ---   

Chorus thingy-
|---------------------------------|
|---------------------------------|
|---------------------------------|
|---------6\5---6----------8------|
|-7----8--4\3---4--7----8--6------|
|-5----6-----------5----6---------|

Pre-Chorus thingy-
|--------------------------------------------------------------------|
|--------------------------------------------------------------------|
|--------------------------------------------------------------------|
|--------------------------------------------------------------------|
|------8--------8--------8----6--------8--------8--------8----7-6-7--|
|-0000-6-000000-6-000000-6-00-4---0000-6-000000-6-000000-6-00-5-4-5--|
pm----   ------   ------   --     ----   ------   ------   ---   

Riff that's played w/lead-
|------------------------------|
|------------------------------|
|------------------------------|
|------------------------------|
|-------7h10-7--------7h10-7---|
|-00000--------000000----------|
pm-----        ------  

This may be missing a few backup riffs, if so, I'll send them in at some 
point...


                                 SLAYER
                        BEHIND THE CROOKED CROSS
                 From their fine album 'South of Heaven'

Tabbed by:      Jason Mathie
                Mathie@unixg.ubc.ca

Comments:

I didn't even attempt to do the solos.

Throughout the song, play all downpicks.  I know it's fast and your wrist
starts to hurt.  Quit whining.  Slayer is supposed to hurt.

As usual, guitars are tuned to Eb.  Hanneman has the left stereo channel.

Tempo 220 bpm  (ie crazy fast)

Intro
Gb|----------------|
Db|----------------|
Ab|----------------|
Eb|2-2-2-2-2-2-2-2-|
P.M. . . . . . . .

Left Gtr plays the intro riff 4x
Both Gtrs play the intro riff 16x (after 4x the drums enter)

Riff A
Gb|----------------|----------------|----------------|----------------|
Db|----3-----2-----|----------------|----3-----2-----|------------4---|
Ab|----3-----2-----|4-----3-----3-4-|----3-----2-----|4-----3-----4---|
Eb|2-2---2-2---2-2-|4-2-2-3-2-2-----|2-2---2-2---2-2-|4-2-2-3-2-2-----|
P.M. . . . . . . .  . . . . . .      . . . . . . . .  . . . . . .

Both Gtrs play Riff A 2x

Riff B1
Gb|-Left-Gtr--------|----------------|
Db|-----------------|----------------|
Ab|/4~----3~--------|--------5-6-5---|
Eb|-------------5---|--4-----3-4-3---|
  |                 |                |
Gb|-Right-Gtr-------|----------------|
Db|/6~----5~--------|----------------|
Ab|-------------7---|--6-----5-6-5---|
Eb|-----------------|----------------|
P.M                          . .

Both Gtrs play Riff B1
Both Gtrs play Riff A 4x with lyrics:

  Time melts away in this living inferno
  Trapped by a cause that I once understood
  Feeling a sickness building inside of me
  Who will I really have to answer to

Riff C
Gb|-----------------|----------------|----------------|----------------|
Db|-----------------|----------------|----------------|----------------|
Ab|/4~----3~--------|--------5-6-5---|----------------|----------------|
Eb|-------------5---|--4-----3-4-3---|2-2-2-2-2-2-2-2-|2-2-2-2-2-2-2-2-|
P.M                          . .      . . . . . . . .  . . . . . . . .

Both Gtrs Play Riff C 3.5x with lyrics:

  March on through the rivers of red
  Souls drift, they fill the air
  Forced to fight behind
  The crooked cross.

Both Gtrs play Riff A 6x, lyrics after 2x:

  Do only what is expected of me
  With no emotions my feelings suppressed
  Blind obedience carries me through it all
  Conscience a word I learned to forget.

Both Gtrs play Riff C 3x, then Riff B1, with these lyrics:

  March on through the rivers of ... (same as before)

Then both Gtrs play
Gb|----------------|----------------|
Db|----------------|----------------|
Ab|4---------------|----------------|
Eb|2---------------|-----rest-------|
   ^---quick chord

Riff D
Gb|----------------|----------------|
Db|----------------|----------------|
Ab|----4-----4-----|3---3---7-7-6---|
Eb|2-2---2-2---2-2-|--2-----5-5-4---|
P.M. . . . . . . .  . . .   . .

Right Gtr plays Riff D 4x while Left Gtr solos
Left Gtr plays Riff D 4x while Right Gtr solos

Then this little intermission:
Left Gtr continues P.M like in Riff D

Gb|-Left-Gtr-------|----------------|----------------|----------------|
Db|----------------|----------------|----------------|----------------|
Ab|----4-----4-----|3---3---7-7-6---|----4-----4-----|3---3---7-7-6---|
Eb|2-2---2-2---2-2-|--2-----5-5-4---|2-2---2-2---2-2-|--2-----5-5-4---|
  |                |                |                |                |
Gb|-Right-Gtr------|----------------|----------------|----------------|
Db|----------------|----------------|----------------|----------------|
Ab|----------------|--------7-7-6---|----------------|--------7-7-6---|
Eb|----------------|--------5-5-4---|----------------|--------5-5-4---|

Gb|-Left-Gtr-------|----------------|----------------|----------------|
Db|----------------|----------------|----------------|----------------|
Ab|----4-----4-----|3---3---7-7-6---|----4-----4-----|3---3---7-7-6---|
Eb|2-2---2-2---2-2-|--2-----5-5-4---|2-2---2-2---2-2-|--2-----5-5-4---|
  |                |                |                |                |
Gb|-Right-Gtr------|----------------|----------------|----------------|
Db|----6-----6-----|5---5-----------|----6-----6-----|5---5-----------|
Ab|----4-----4-----|3---3-----------|----4-----4-----|3---3---7-7-6---|
Eb|----------------|----------------|----------------|--------5-5-4---|

Then Left Gtr plays Riff D 4x while Right Gtr solos
Then Right Gtr plays Riff D 4x while Left Gtr solos

Riff B2
Gb|-Left-Gtr--------|----------------|
Db|-----------------|----------------|
Ab|/4~----3~--------|--------5-6-5---|
Eb|-------------5---|--4-----3-4-3---|
  |                 |                |
Gb|/6~----5~--------|----------------|
Db|-------------7---|--6-----5-6-5---|
Ab|-----------------|----------------|
Eb|-Right-Gtr-------|----------------|
P.M                          . .

Play Riff B2
Both Gtrs play Riff A 4x with lyrics:

  Time melts away in this living inferno
  Trapped by a cause that I once understood
  Blind obedience carries me through it all
  Do only what is expected of me.

Both Gtrs play Riff C 2x                           \
Both Gtrs play Riff B1 and last half of Riff C      >--all with lyrics:
Both Gtrs play Riff B2 and last half of Riff C     /

  March on through the rivers of ... (same as before)

And, end on the quick chord:
Gb |---|
Db |---|
Ab |-4-|
Eb |-2-|


Name: Mandatory suicide
Album: South Of Heaven
By: Slayer
Tabbed By: Randy(Kreator143)
E-Mail: Metaldeth161@aol.com

~=vIBRATE STRING
/=SLIDE



Intro Repeat 8x
|-----------------------------|
|-----------------------------|
|----------------10-9~--------|
|----------9-8----------------|
|-5-4-3-2------7--------------|
|-3-2-1-0---------------------|

 2nd Riff Repeat 5x                    
|-----------------------------|   
|-----------------------------|   
|-----------------------------|  
|-5--3-2----------------------|   
|-5--3-2----------------------|   
|-3--1-0----------------------|   


3rd Riff Repeat 8x                  1x 
|-------------------------------------|----|
|-------------------------------------|----|
|-------------------------------------|----|
|---5---5-4-3---5---5-4-3---5---5-4-3-|-6-3|
|-0-3-0-3-2-1-0-3-0-3-2-1-0-3-0-3-2-1-|-4-1|
 

4th Riff when start singing Repeat 5x
|--------------------------------|
|--------------------------------|
|--------------------------------|
|--------------------------------|
|-------------------------5--3---|
|-0-0-0-0-0-0-0-0-0-0-0-0-3--1---|

 5th Riff Repeat 4x                        
|-----------------------------------------|
|-----------------------------------------|
|-----4-3-------4-3-------4-3-------4-3---|
|---------5~--------5~--------5~--------5~||
|-2-2--------2-2-------2-2------2-2-------|
|-0-0--------0-0-------0-0------0-0-------|


6th Riff Repeat 4x   1x
|--------------------|----|
|--------------------|----|
|--------------------|----|
|--------------------|----|
|--2-2-9--8----------|-6-3|
|--0-0-7--6-0-3/0----|-4-1|


 4th Riff Repeat 5x                                        
|--------------------------------|    
|--------------------------------|    
|--------------------------------|  
|--------------------------------|    
|-------------------------5--3---|    
|-0-0-0-0-0-0-0-0-0-0-0-0-3--1---|    

3rd Riff Repeat 8x    1x
|------------------------------------|----|
|------------------------------------|----|
|------------------------------------|----|
|------------------------------------|----|
|---5---5-4-3---5---5-4-3---5---5-4-3|-6-3|
|-0-3-0-3-2-1-0-3-0-3-2-1-0-3-0-3-2-1|-4-1|

 Riff 1 Intro Repeat 4x
|---------------------------------|
|---------------------------------|
|----------------10-9~------------|
|----------9-8--------------------|
|-5-4-3-2------7------------------|
|-3-2-1-0-------------------------|

 Behind the solo 7th Riff Repeat 6x
|--------------------------------|
|--------------------------------|
|--------------------------------|
|--------------------------------|
|-2--2-2-2-3-3-5-5-3-3-3-3-3-3-3-|
|-0--0-0-0-1-1-3-3-1-1-1-1-1-1-1-|



  5th Riff Repeat 4x                             
|-------------------------------------------|  
|-------------------------------------------|   
|-----4-3-------4-3-------4-3--------4-3----|  
|---------5~--------5~--------5~---------5~-|   
|-2-2-------2-2-------2-2--------2-2--------| 
|-0-0-------0-0-------0-0--------0-0--------|  
                                                
 6th Riff  1x
|---------------|----|
|---------------|----|
|---------------|----|
|-2-2--9-8------|-6-1|
|-0-0--7-6--/3-0|-4-1|
 

4th Riff    Rereat 4x             
|-----------------------------| 
|-----------------------------|  
|-----------------------------|  
|-----------------------------|  
|-------------------------5--3|  
|-0-0-0-0-0-0-0-0-0-0-0-0-3--1|  

 3rd Riff Repeat 8 x
|----------------------------------------|
|----------------------------------------|
|----------------------------------------|
|----------------------------------------|
|---5---5-4-3---5---5-4-3---5---5-4-3----|
|-0-3-0-3-2-1-0-3-0-3-2-1-0-3-0-3-2-1----|

Last Riff 7th Riff Repeat 20x
|-------------------------------|
|-------------------------------|
|-------------------------------|
|-------------------------------|
|-2--2-2-2-3-3-5-5-3-3-3-3-3-3-3|
|-0--0-0-0-1-1-3-3-1-1-1-1-1-1-1|
Slayer - Ghosts Of War
Submitted By: Sqweeky
EMail: Blindside831@aol.com
South of Heaven 
Transcribed by Mike Kimball 
[bloodmetalcontent@yahoo.com] 
[geocities.com/bloodmetalcontent]  

As with all guitar tablature, a mono-spaced font 
(e.g. Courier or Monaco) is required to display properly... 

Fig. 1 
|----------------------------------- 
|----------------------------------- 
|----------------------------------- 
|------------------3-----2---------- 
|--5-------4-------------------3---- 
|----222222--222222--2222--2222--2-- 


Fig. 2 
|----------------------------------- 
|----------------------------------- 
|------------------------------3-2-- 
|------------------------------3-2-- 
|------3-2-----2-1-----3-2---------- 
|--4444----4444----4444----3333----- 

|----------------------------------- 
|----------------------------------- 
|------------------------------1-2-- 
|------------------------------1-2-- 
|------3-2-----2-1-----3-2---------- 
|--4444----4444----4444----3333----- 


Fig. 3 
|------------------------------------------------- 
|------------------------------------------------- 
|------------------------------------------------- 
|----------------------------------------------3-- 
|------------------------------7---2-------5---1-- 
|--33333333333333333333333333335---0-------3-0---- 
   |__||__||__||__||__||__||__| 


Fig. 4                        ends [1 & 3] 
|---------------------------||----------|| 
|---------------------------||----------|| 
|---------------------------||----------|| 
|---------------------------||----------|| 
|------------------2--------||----------|| 
|--0-1111113-111111--111111-||-4-1-2-1--|| 

end [2]     end [4] 
|----------||----------|| 
|----------||----------|| 
|----------||------3---|| 
|----6-----||--5---3---|| 
|----6-----||--5---1---|| 
|--1-4-----||--3-0-----|| 


Fig. 5 
|------------------------------------ 
|------------------------------------ 
|------------------------------------ 
|--6-----5-----9---8----------------- 
|--6-----5-----9---8----------------- 
|--4-----3-----7---6-66666666666666-- 
                     _||__||__||__| 
                      
Fig. 6 
[solo 1] 
|---------------------------------- 
|---------------------------------- 
|---------------------------------- 
|---------------------------------- 
|----------------------------9----- 
|--333333334-333333333333334-7----- 
   |__||__|| _||__||__||__|| 

|---------------------------------- 
|---------------------------------- 
|---------------------------------- 
|---------------------------------- 
|--------------------------8-7-6--- 
|--333333334-333333333333336-5-4--- 
   |__||__|| _||__||__||__| 

[solo two: same as Fig. 4] 


Fig. 7 
[gtr. 1] 
|------------------------------------ 
|------------------------------------ 
|--------------------10-9------9-8--- 
|----7-8---8-7------------10-9------- 
|--0-----0-----8-7-0----------------- 
|------------------------------------ 

|------------------------------------ 
|------------------------------9-8--- 
|--------------------10-9----9------- 
|----7-8---8-7------------10--------- 
|--0-----0-----8-7-0----------------- 
|------------------------------------ 

[gtr. 2 plays A....C..G#....C.., root open 5th string, then] 
[one octave higher, root 4th string 7th fret.] 


Fig. 8 
|------------------------------------ 
|------------------------------------ 
|------------------------------------ 
|------------------------------------ 
|------------------------------------ 
|--000-0-0-000-0-0-000-0-0-000-0-0--- 


Fig. 9 
|------------------------------------ 
|------------------------------------ 
|------------------------------------ 
|--4---------------5-------3--------- 
|--4---------------5-------3--------- 
|--2---------------3-------1--------- 

|------------------------------------ 
|------------------------------------ 
|------------------------------------ 
|------------------------------------ 
|------------------------------------ 
|--000-0-0-000-0-0-000-0-0-000-0-0--- 


Fig. 10 
|-------------------------------||-------------------------------|  
|-------------------------------||-------------------------------|  
|-------------------------------||---------------------------4-3-|  
|---2-3---3-2-------5-4-----4-3-||---2-3---3-2-------5-4---4-----|  
|-------------3-2-------5-4-----||-------------3-2-------5-------|  
|-0-----0---------0-------------||-0-----0---------0-------------|
Read between the lies
By: Slayer
Album: South of Heaven
Transcribed by: Mike Bower
Tune down ? step
Riff 1  *= pm
|---------------------------------------------------------------|
|---------------------------------------------------------------|
|---------------------------------------------------------------|
|-----------------5-----5-----5-----5-----5---------------------|
|---2-3--5-4------4-----4-----4-----4-----4---------------------|
|---0-1--3-2--0-0---0-0---0-0---0-0---0-0-----------------------|
              * *   * *   * *   * *   * *
Riff 2
|---------------------------------------------------------------|
|---------------------------------------------------------------|
|---------------------------------------------------------------|
|-------------------7-6-------6-5-------------------------------|
|---------7-8-----8---------7-----------------------------------|
|---0-0-0-----0-0-------0-0-------------------------------------|
    pm---|    * *       * *
Riff 2b
|---------------------------------------------------------------|
|---------------------------------------------------------------|
|-------------------7-6-------6-5-------------------------------|
|---------7-8-----8---------7-----------------------------------|
|---------------------------------------------------------------|
|---0-0-0-----0-0-------0-0-------------------------------------|
    pm---|    * *       * *
Riff 3
|---------------------------------------------------------------|
|---------------------------------------------------------------|
|---------------------------------------------------------------|
|---2-----2------2----------------------------------------------|
|---1-----1------1----------------------------------------------|
|-----0-0---0-0----0-0-0-0-3p0----------------------------------|
      * *   * *    pm-----|
Riff under solo
|-----------------------------------------------------------------|
|-----------------------------------------------------------------|
|-----------------------------------------------------------------|
|--------------------------------4--------------------------------|
|-------4-----------4-3----------2--------------------------------|
|---2-2---2-2-2-2-2------2-2-2-2----------------------------------|
    * *   pm-------|     pm---------------------------------------|
|-----------------------------------------------------------------|
|-----------------------------------------------------------------|
|-----------------------------------------------------------------|
|-----------------------------4\3---------------------------------|
|-------4---------4-3---------2\1---------------------------------|
|---2-2---2-2-2-2-----2-2-2-2-------------------------------------|
    * *   pm-----|    pm------------------------------------------|
That's pretty much the whole song. All you need is this last riff:
|---------------------------------------------------------------|
|---------------------------------------------------------------|
|---------9-------8---------------------------------------------|
|-----------7-------7-6-----7-6-5-------------------------------|
|---------------------------------------------------------------|
|---0-0-0-----0-0-------0-0-------------------------------------|
    * * *     * *       * *
I didn't include the song order, because if you listen to Slayer, you must be smart. Questions, comments, 
e-mail me at: gtrdeath@hotmail.com


                                 SLAYER
                            CLEANSE THE SOUL
                 From their fine album 'South of Heaven'

Tabbed by:      Jason Mathie
                Mathie@unixg.ubc.ca

Comments:

Only the bottom four strings required for this tune, so I'll leave out
the first two.

Riff B below I had to make a guess on, 'cause it's hard to hear and
really fast.  It'd be great if people told me if they think it's
close or not.

Time signature changes are shown like this:
|----
|3:--
|4:--
|----

This means to repeat the last two measures:
----|//--
--*-//---
---//-*--
--//|----

As usual, guitars are tuned to Eb.  Hanneman has the left stereo channel.

Starting Tempo: 145 bpm

Intro Riff
Gb|---|-LeftGtr--------|----------------|----------------|
Db|---|----------------|----------------|----------------|
Ab|-5-|4-------------5-|4-------------5-|4-------------5-|
Eb|-3-|2-------------3-|2-------------3-|2-------------3-|
  |   |                |                |                |
Gb|---|-RightGtr-------|----------------|----------------|
Db|---|----------------|----------------|----------------|
Ab|-5-|4-------------5-|4-------------5-|4-------------5-|
Eb|-3-|2-------------3-|2-------------3-|2-------------3-|
P.M .                .                .                .

Tempo change to 220 bpm (!)          /---repeat this 3x------------\
Gb|-LeftGtr--------|----------------||----------------|------------||
Db|----------------|----------------||*---------------|-----------*||
Ab|4-------5---4---|----------------||*-------5---4---|-----------*||
Eb|2-------3---2---|----------------||--------3---2---|------------||
  |                |                ||                |            ||
Gb|-RightGtr-------|----------------||----------------|//----------||
Db|9---------------|7-------6/9-----||*-------------*-//----------*||
Ab|7-------5---4---|5-------4/7-----||*--------------//-*---------*||
Eb|--8-7-0-3---2---|--000000----0000||--------------//|------------||
P.M  . . .            ......    ....

Riff A
Gb|----------------|----------------|
Db|9---------------|7-------6/9-----|
Ab|7-------5---4---|5-------4/7-----|
Eb|--8-7-0-3---2---|--000000----0000|
P.M  . . .            ......    ....

Both Gtrs play Riff A 4x

Riff B
Gb|----------------|--------5p4---4/|7---------------|--------5p4-----|
Db|----------------|--------5p4---4/|7---------------|--------5p4---5-|
Ab|2---------------|----------------|----------------|--------------5-|
Eb|0000000000000000|00000000----0---|--00000000000000|00000000----0---|
P.M ............... ........    .      .............. ........    .

Gb|----------------|--------5p4-----|----------------|-----------------|
Db|----------------|--------5p4---5-|----------------|--------10p9-8---|
Ab|----------------|--------------5-|----------------|--------10p9-8---|
Eb|0000000000000000|00000000----0---|0000000000000000|00000000---------|
P.M................ ........    .    ................ ........
              RightGtr slides quickly down (Ab?) string here---^

Both Gtrs play Riff B 4x with lyrics:

  Body that rest before me
  With every dying breath
  Spellbound and gagged
  I commence your flesh to dirt

Both Gtrs play Riff A 4x
Both Gtrs play Riff B 4x with lyrics:

  Body that lay before me
  In everlasting death
  Entombed in abscess
  To rot and lie stinking in the earth

Both Gtrs play Riff A 3x followed by

Gb|----------------|---------|
Db|9---------------|2:-------|
Ab|7-------5---4---|4:-rest--|
Eb|--8-7-0-3---2---|---------|
P.M  . . .

Riff C
Gb|----------------|----------------|
Db|----4-----4\3---|----------------|
Ab|--0-2-----2\1---|----------------|
Eb|0-----2-3-----0-|0000000000000000|
P.M. .   . .     .  ................

Left Gtr plays Riff C 6x while Right Gtr solos

Riff D
                     /-- 1,3 ---------\/-- 2 -----------\/-- 4 ----------\
Gb||-----------------|----------------||----------------||----------------|
Db||*----4-----4\3---|---------------*||--------5\4----*||--6\5---5\4-----|
Ab||*--0-2-----2\1---|---------------*||--------3\2-4/5*||--4\3---3\2-4/5-|
Eb||-0-----2-3-----0-|0-0-0-0-0-0-0-0-||0-0-0-0-----2/3-||0-----0-----2/3-|
P.M  . .   . .     .  . . . . . . . .   . . . .           .     .

Both Gtrs play Riff D 2x with lyrics:

  Empty altar awaits its victim
  Stained glass windows black
  Candles burn the midnight oil
  Incense fills the night

  Observing trance awakening state
  Lying still unknowing
  Reciting the passages of time
  Prepare for the impaling

Then both Gtrs play the following interlude:
Gb|--------------|------------|------------|-----------|
Db|3:--------5-4-|--------5-6-|--------5-4-|2:-----3-2-|
Ab|4:----5-6-----|----5-4-----|----5-6-----|4:-3-4-3-2-|
Eb|--------------|------------|------------|---3-4-----|

Gb|--------------|------------|------------|
Db|3:--------5-4-|--------5-6-|--------5-4-|
Ab|4:----5-6-----|----5-4-----|----5-6-----|
Eb|--------------|------------|------------|

Right Gtr plays Riff D 2x while Left Gtr solos

Riff E1
Gb|--------------|------------|-----------|
Db|3:----5-4-----|----4-3-----|2:-----2-1-|
Ab|4:--------5-4-|--------4-3-|4:-2-3-2-1-|
Eb|--------------|------------|---2-3-----|

Riff E2
Gb|--------------|------------|-----------|
Db|3:------------|------------|2:-----2-1-|
Ab|4:----5-4-----|----4-3-----|4:-2-3-2-1-|
Eb|----------5-4-|--------4-3-|---2-3-----|

Both Gtrs play Riff E1
Left Gtr plays Riff E1 while Right Gtr plays Riff E2
Both Gtrs play Riff E1 2x

Then some very cool riffery:
Gb|--LeftGtr-----|----8-7-----|------------|---5-4-----|
Db|3:----6-5-----|--------8-7-|----6-5-----|2:-----5-4-|
Ab|4:--------6-5-|------------|--------6-5-|4:---------|
Eb|--------------|------------|------------|-----------|
  |              |            |            |           |
Gb|--RightGtr----|----8-7-----|------------|---5-4-----|
Db|3:----6-5-----|--------8-7-|----6-5-----|2:-----5-4-|
Ab|4:--------6-5-|------------|--------6-5-|4:---------|
Eb|--------------|------------|------------|-----------|

Gb|--LeftGtr-----|----8-7-----|------------|---5-4-----|
Db|3:----6-5-----|--------8-7-|----6-5-----|2:-----5-4-|
Ab|4:--------6-5-|------------|--------6-5-|4:---------|
Eb|--------------|------------|------------|-----------|
  |              |            |            |           |
Gb|--RightGtr----|----8-7-----|------------|---8-7-----|
Db|3:----6-5-----|--------8-7-|----6-5-----|2:-----8-7-|
Ab|4:--------6-5-|------------|--------6-5-|4:---------|
Eb|--------------|------------|------------|-----------|

Gb|--LeftGtr-----|------------|------------|-----------|
Db|3:----6-5-----|----8-7-----|----6-5-----|2:-5-4-----|
Ab|4:--------6-5-|--------8-7-|--------6-5-|4:-----5-4-|
Eb|--------------|------------|------------|-----------|
  |              |            |            |           |
Gb|--RightGtr----|----8-7-----|------------|---5-4-----|
Db|3:----6-5-----|--------8-7-|----6-5-----|2:-----5-4-|
Ab|4:--------6-5-|------------|--------6-5-|4:---------|
Eb|--------------|------------|------------|-----------|

Gb|--LeftGtr-----|----8-7-----|------------|
Db|3:----6-5-----|--------8-7-|----6-5-----|
Ab|4:--------6-5-|------------|--------6-5-|
Eb|--------------|------------|------------|
  |              |            |            |
Gb|--RightGtr----|----8-7-----|------------|
Db|3:----6-5-----|--------8-7-|----6-5-----|
Ab|4:--------6-5-|------------|--------6-5-|
Eb|--------------|------------|------------|

Both Gtrs play Riff D 2x with lyrics:

  Death's an art, flesh and earth never part
  A power of the mind
  Death shines on the air of silence
  A ritual of endless time

  Purged of your dead body
  Sacrificed of your life
  Unearthly ritual sealed in fire
  Enter the kingdom of desire.

However, the second time through the pattern, substitute the following
for the 4th repeat (both Gtrs):
Gb|----------------|----------------|
Db|----4-----4\3---|--5-5---4-------|
Ab|--0-2-----2\1---|003-3-0-2----5--|
Eb|0-----2-3-------|-------------3--|
P.M. .   . .                     .

Then replay the intro pattern (both Gtrs):
Tempo back to 145 bpm
Gb|----------------|----------------|----------------|
Db|----------------|----------------|----------------|
Ab|4-------------5-|4-------------5-|4-------------5-|
Eb|2-------------3-|2-------------3-|2-------------3-|
P.M              .                .                .

Tempo changes back to 220
Gb|-LeftGtr--------|----------------|
Db|----------------|----------------|
Ab|4-------5---4---|--------14\\\\\\|
Eb|2-------3---2---|--------12\\\\\\|
  |                |                |
Gb|-RightGtr-------|----------------|
Db|9---------------|7-------6/9-----|
Ab|7-------5---4---|5-------4/7-----|
Eb|--8-7-0-3---2---|--000000----0000|
P.M  . . .            ......    ....

Riff F
Gb|----------------|----------------|
Db|----------------|7-------6-------|
Ab|----------------|5-------4-------|
Eb|0000000000000000|--000000--000000|
P.M................   ......  ......

Left Gtr plays Riff F 6x while Right Gtr solos
then Left Gtr plays last half of Riff F while Right Gtr solos
Song ends on this bar, while King's lead ends:
Gb|----------------|
Db|9---------------|
Ab|7-------5---4---|
Eb|--8-7-0-3---2---|
P.M  . . .

E-mail me with any concerns, questions, requests, corrections...
      Mathie@unixg.ubc.ca


                             Dissident Agressor
                            Performed by Slayer
                      From the Album "South of Heaven
                         Transcribed by Lordnatas

Tis me Lordnatas here once again tabbing out yet another Slayer Tune.This one
is fairly easy,but i know there are some of you out there to lazy to figure
it out yourselfs so here goes.Tuneing is E flat.

Intro
Guitar 1

D-9--------------------------------------------------------------
A-7----------------------------------------------xxxxxxxxxxxxxxxx
E-0----------------------------------------------xxxxxxxxxxxxxxxx
                                                   pick slide
Guitar 2

A-2---2---2---2---|-2---2---2---2---|-2---2---2---2---|-2---2---2---2---
E-0-0-0-0-0-0-0-0-|-0-0-0-0-0-0-0-0-|-0-0-0-0-0-0-0-0-|-0-0-0-0-0-0-0-0-
    .   .   .   .     .   .   .   .     .   .   .   .     .   .   .   .

Verses(both guitars)

          r               r
A-2---------------2------------7-
E-0-0000-3-0-0000-0-0000-3-0-0-5- (this plays a total of 7 times)
    ....     ....   ....     .

          r       r r
D------------5-4-4-2-0-4--------
A-2--------------------2-------- (substitute this riff on the 8th time)
E-0-0000-3-0--------------------
    ....  .

Chorus

Guitar 1
     
D--------------------------------------------------5----------
A-2------2------2------------2------2-----------5-5--7---------(plays a total
E-0-0000-0-0000-0-0000-5-6-7-0-0000-0-0000-5-6-7-7-------------Of 2 times)
    ....   ....   ....         ....   ....

Guitar 2


E---------12------------12------------------------------------
B---------15------------15------------------------------------
G         **            **
D
A Guitar 2 plays the same as guitar 1 except were noted
E
      **= Bend the bottom note(15) 1 step untill it matches the pitch
          of the top note(12)


2nd chorus

Its the same as the first but on the second time add this to the end

G----------5----------------
D----5---5---7--------------
A-567--7--------------------
E---------------------------

Solo

The riff behind the solo is the same as the first chorus except that it is
played on A,D and G instead of E,A,D.

After chous


Guitar one                   ______________   ______________
                            | 1.             |2.
G-9--7-9-|-9--7-9-|-9-7-9\4-5--------------||-5---------------
A-7--5-7-|-7--5-7-|-7-5-7\2-3----5-4-------||-3------5--4-----
E--------|--------|----------000-3-2-------||----000-3--2-----
                             ...                 ...
Guitar 2

G-9--7-9------9--7-9------9--7-9\4-5-12-11-||-5------12-11----
A-7--5-7------7--5-7------7--5-7\2-3-10-9--||-3--333-10-9-----
E-------00000-------00000------------------||-----------------
        .....       .....                        ...



2nd chorus

same as first except guitar 2 plays

E-15---------15-
B-18---------18-
G **         **
D
A
E


Ending

Guitar 1

G--------------------5-----------------------------------------------
D---------5------5-5--7---------5--------5---------(9)---------------
A-----5-5--7-567--7---------5-5---7-567----------5--7----------------
E-567--7----------------567--7--------------567----------------------

Guitar

E-19------------(12 times)
B-22------------
G **
D
A
E

Solo
approximation in pitches, figure out the whammy part yourself its easy

   whammy 1.5 bends, ends with 2.5 whammy bar      dive 1, 3.5 up 5
|---------------------------------|-------------|-------------------|
|-harm----------------------------|-19-\-11-----|------------0------|
|-~2.5----------------------------|-------------|-------------------|
|---------------------------------|-------------|-------------------|
|------------------------------0--|-------------|-------------------|
|---------------------------------|-------------|-------------------|


      dive 4   whammy shakes at 6    dive .5      up .5, down 1
|--13--------|-h20-h21------------|--5---------|------------------|----|
|------------|--------------------|-harmonic---|-harmonic---------|----|
|------------|----------h17--h16--|------------|--4--4------------|----|
|------------|--------------------|------------|------------------|----|
|------------|--------------------|-------0----|-----------0------|----|
|------------|--------------------|------------|------------------|----|

  depress 1.5 before striking then raise 1.5 and drop 1
|-----------------------------------------------------------------|
|-----------------------------------------------------------------|
|--0--------------------------------------------------------------|
|-----------------------------------------------------------------|
|-----------------------------------------------------------------|
|-----------------------------------------------------------------|

  dive 3.5         depress 4 before striking    dive 5.5    pre-depress 1.5
|----------------|-17------------------------|-20------------17---|
|--harmonic------|---------------------------|------------18------|
|---4------------|---------------------------|--------------------|
|----------------|---------------------------|--------------------|
|---------4---0--|---------------------------|--------------------|
|----------------|---------------------------|--------------------|

  .5 bends        go up 1.5
|-----------|-----------------------------------------------------|
|-harmonic--|----harmonic-----------------------------------------|
|--4--------|--3--4-----------------------------------------------|
|-----------|-----------------------------------------------------|
|-----------|-----------------------------------------------------|
|-----------|-----------------------------------------------------|


  Well there it is.Told ya it was easy.Heres a hint.If you turn your stereos
  pan to the left or right you will here the seperate guitar parts.If you
  are not a soloist(like myself)i suggest turning it to the left speaker once
  you get the hang of it,and jam out with it.Most Slayer is set up like this.
  Have Fun!!!


Spill the Blood
By: Slayer
Album: South of Heaven
Transcribed by: Mike Bower
Tune down ? step

Intro
|-------0-------0-------0-------0-------0-------0-------0-------|
|-----0---0---0---0---0---0---0---0---0---0---0---0---0---0-----|
|---4-------4-------3-------3-----------------------------------|
|-----------------------------------4-------4-------5-----------|
|---------------------------------------------------------------|
|---------------------------------------------------------------|

|-------0---------|
|-----0---0-------|
|-----------------|
|---3-------------|
|-----------------|
|-----------------|
W/ volume knob or pedal
|---------------------------------------------------------------|
|---------------------------------------------------------------|
|---------------------------------------------------------------|
|---4---------3-------------------------------------------------|
|---2---------1--------4-------5------3-------------------------|
|----------------------2-------3------1-------------------------|
Then, guitar 1 plays above riff w/distortion. Then play:
|---------------------------------------------------------------|
|---------------------------------------------------------------|
|--------------8-----7------------------------------------------|
|-------9-10-----9-----8----------8----5-7-8-5-7-8---5-7-8------|
|-----7--------------------7-10-9----5-------------5------------|
|---0--------0-----0-----0--------------------------------------|
    *        *     *     *
|------------------------|
|------------------------|
|--6----5----------------|
|----7----6--------------|
|------------------------|
|------------------------|



Rhy Fig 1
|-----------------------------------------------------------------|
|-----------------------------------------------------------------|
|-----------------------------------------------------------------|
|-----------------------------------------------------------------|
|-2-----3--5--3--2-------------2-----3--5--3--2-------------5-6---|
|-0-0-0-1--3--1--0-0-0-0-0-0-0-0-0-0-1--3--1--0-0-0-0-5-6-7-------|
    * *            pm---------|  *--------------------------------|            * * *
Rhy Fig 2
|-----------------------------------------------------------------|
|-----------------------------------------------------------------|
|-----------------------------------------------------------------|
|-----------------------------------------------------------------|
|--------3---2----------------------------------------------------|
|--2-2-2---2---2-4-5-2-2-2-5-4-2-4--------------------------------|
   pm---|  *   pm-------------------------------------------------|
|-----------------------------------------------------------------|
|-----------------------------------------------------------------|
|-----------------------------------------------------------------|
|-----------------------------------------------------------------|
|--2-----3--5--3--2-------------5-6-------------------------------|
|--0-0-0-1--3--1--0-0-0-0-5-6-7-----------------------------------|
     * *            * * *
Rhy Fig 3
|---------------------------------------------------------------|
|---------------------------------------------------------------|
|---------------------------------------------------------------|
|--------9---8---4-5---------4-3--------------------------------|
|--------7---6---2-3-----4-5------------------------------------|
|--0-0-0---0---0-----0-0----------------------------------------|
   * * *   *   *     pm-----|
|---------------------------------------------------------------|
|---------------------------------------------------------------|
|----------------------------4-5--------------------------------|
|--------9---8---4-5-----4-3------------------------------------|
|--------7---6---2-3-4-5----------------------------------------|
|--0-0-0---0---0------------------------------------------------|
   * * *   *   *     * *
Riff under solo #1
|---------------------------------------------------------------|
|---------------------------------------------------------------|
|---------------------------------------------------------------|
|--------9-8-4-5------------------------------------------------|
|--------7-6-2-3---------6--------------------------------------|
|--0-0-0---------0-0-0-0-4--------------------------------------|
   * * *         * * * *
Under solo #2 play Rhy Fig 3. That's it. Questions, comments, requests, e-mail me at: gtrdeath@hotmail.com.
comments
print report bad tab
1 comment total.
0 reply
Flamesword55 wrote on May 1 2014, 11:01 am

Holy Jesus

I want to post or [tab]
guest
You may want to rate the tab now too:
select rating
Please do not post tabs as comments. Select "correction" instead!