Oops, an error
Loading. Please wait.

South Of Heaven Drum Tab

ver1
ver1

Whole song

More versions @911Tabs.com
1,906 views 1 this week
no commentswrite comment
1 2 3 4 5
please rate
add to favorites launch autoscroll
font size
0
reset
Autoscroll
+/-
esc
set tempo
stop
Contributor
WARNING: You are trying to view
                                    content from Ultimate-Guitar.com
                                    in an unauthorized application,
                                    which is prohibited.

                                    Please use an official Ultimate
                                    Guitar Tabs application for iPhone,
                                    iPad or Android to access legitimate
                                    chords, guitar, bass, and drum tabs
                                    from Ultimate-Guitar.com database.

                                    Type "ultimate guitar tabs" in Apple
                                    App Store's or Android Market's
                                    search to find the application.

			SOUTH OF HEAVEN

INTRO  
C  X---------------|----------------|X---------------|----------------|
T1 ------------3-o-|--3-o-----------|---------------o|o---oo---oo-----|
T2 ----------------|--------3-o-3-o-|----------------|-----------oo-oo|
S -----------------|----------------|------------f-o-|-oo---ooo-------|
B  o---------------|----------------|o---------------|----------------|
   1 + 2 + 3 + 4 +  1 + 2 + 3 + 4 +  1 + 2 + 3 + 4 +  1 + 2 + 3 + 4 +

C  X---------------|----------------|X-----------X-X-|----------------|
T1 ----------------|----------------|----------------|o--oooo---------|
T2 ----------------|----------------|----------------|---------oooooo-|
S  ------------f---|--f-----f-----o-|------------o-o-|-oo----oo-------|
B  o-------------3-|o---3-o---3-o---|o---------------|----------------|
   1 + 2 + 3 + 4 +  1 + 2 + 3 + 4 +  1 + 2 + 3 + 4 +  1 + 2 + 3 + 4 +
  
BRIDGE
C  X---------------|----------------|----------------|----------------|
T1 ----o-o-o-o-o-o-|o-o-o-o-o-o-o-o-|o-o-o-o-o-o-o-o-|o-o-o-o-o-o-o-o-|
T2 ----o-o-o-o-o-o-|o-o-o-o-o-o-o-o-|o-o-o-o-o-o-o-o-|o-o-o-o-o-o-o-o-|
B  o---------------|--------------o-|o---------------|----------------|
   1 + 2 + 3 + 4 +  1 + 2 + 3 + 4 +  1 + 2 + 3 + 4 +  1 + 2 + 3 + 4 +

T1 3-3-3-3-3-3-3-3-|----------------|3-3-3-3-3-3-3-3-|3-3-3-3---------|
T2 ----------------|3-3-3-3-3-3-3-3-|----------------|----------3-3-o-|
S  ----------------|----------------|----------------|--------3-------|
   1 + 2 + 3 + 4 + |1 + 2 + 3 + 4 +  1 + 2 + 3 + 4 + |1 + 2 + 3 + 4 + 
 	     
INTERLUDE
C  X---------------|----------------|X---------------|X---------------|
R  ----x---x---x---|x---x---x---x---|----x---x---x---|----x---x---x---|
S  --------o-------|--------o-------|--------o-------|--------o-------|
B  o-----o-------o-|o-----o-------o-|o-----o---------|o-----o---------|
   1 + 2 + 3 + 4 +  1 + 2 + 3 + 4 +  1 + 2 + 3 + 4 +  1 + 2 + 3 + 4 +

C  X---------------|----------------|X-------X---X---|----------------|
R  ----x---x---x---|x---x---x---x---|----x-----------|----------------|
T1 ----------------|----------------|----------------|-oo------oo-----|
T2 ----------------|----------------|----------------|---oo------oo---|
S  --------o-------|--------o-----oo|--------o---o-oo|o-----ooo-----o-|
B  o-----o-------o-|o-----o---------|o-----o---------|----------------|
   1 + 2 + 3 + 4 +  1 + 2 + 3 + 4 +  1 + 2 + 3 + 4 +  1 + 2 + 3 + 4 +

C  X---------------|----------------|----------------|----------------|
R  ----x-x-x-x-x-x-|x-x-x-x-x-x-x-x-|x-x-x-x-x-x-x-x-|x-x-x-x-x-x-x-x-|
S  --------o-------|--------o-------|--------o-------|----------o-----|
B  o---------------|o---------------|o---------------|o---------------|
   1 + 2 + 3 + 4 +  1 + 2 + 3 + 4 +  1 + 2 + 3 + 4 +  1 + 2 + 3 + 4 +

R  x-x-x-x-x-x-x-x-|x-x-x-x-x-x-x-x-|----------------|----------------|
T1 ----------------|----------------|--o-o---oo----o-|---oooo---------|
T2 ----------------|----------------|----------o-----|-------ooooo----|
S  --------o-------|--------o-------|oo-o--oo---oo---|ooo---------f-f-|
B  o---------------|o---------------|----------------|----------------|
   1 + 2 + 3 + 4 +  1 + 2 + 3 + 4 +  1 + 2 + 3 + 4 +  1 + 2 + 3 + 4 +

VERSE 1
C  X---------------|----------------|----------------|----------------|
H  --x-x-x-x-x-x-x-|x-x-x-x-x-x-x-x-|x-x-x-x-x-x-x-x-|x-x-x-x-x-x-x-x-|
S  ----o-------o---|----o-------o---|----o-------o---|----o-------o---|
B  o-------o-------|o-------o-------|o-------o-------|o-------o-------|
   1 + 2 + 3  + 4 + 1 + 2 + 3 + 4  + 1 + 2 + 3 + 4 +  1 + 2 + 3 + 4 + 

C  X---------------|----------------|X-------X---X---|----------------|
H  --x-x-x-x-x-x-x-|x-x-x-x-x-x-x-x-|--x-x-x---x-----|----------------|
T1 ----------------|----------------|----------------|---oo-oo---ooo--|
T2 ----------------|----------------|----------------|--------------oo|
S  ----o-------o---|----o-------o---|o-------o---o--o|ooo--o--ooo-----|
B  o-------o-------|o-------o-------|------o---------|----------------|
   1 + 2 + 3  + 4 + 1 + 2 + 3 + 4  + 1 + 2 + 3 + 4 +  1 + 2 + 3 + 4 + 

PRE-CHORUS 1
C  X---------------|----------------|----------------|X---X-----------|
R  --x-x-x-x-x-x-x-|x-x-x-x-x-x-x-x-|x-x-x-x-x-x-x-x-|----------------|
T1 ----------------|----------------|----------------|--------3-3-----|
T2 ----------------|----------------|----------------|------------3-3-|
S  o---o---o---o---|o---o---o---o---|o---o---o---o---|o---o-----------|
B  oooooooooooooooo|oooooooooooooooo|oooooooooooooooo|--o-------------|
   1 + 2 + 3 + 4 +  1 + 2 + 3 + 4 +  1 + 2 + 3 + 4 +  1 + 2 + 3 + 4 + 

INTERLUDE
C  X---------------|----------------|X-------X-------|----------------|
R  ----x-x-x-x-x-x-|x-x-x-x-x-x-x---|----x-------x-x-|x-x-x-x-x-x-x---|
T1 ----------------|----------------|----------------|--------------3-|	
T2 ----------------|--------------3-|----------------|----------------|
S  --------o-------|--------o-------|--------o-------|--------o-------|
B  o-----o-------o-|o-----o---------|o-----o-------o-|o-----o---------|
   1 + 2 + 3 + 4 +  1 + 2 + 3 + 4 +  1 + 2 + 3 + 4 +  1 + 2 + 3 + 4 + 

C  X-------X-------|----------------|X-------X-----X-|X---------------|
R  ----x-x---x-x-x-|x-x-x-x-x-x-x---|----x-x---------|----------------|
T1 ----------------|----------------|----------------|-------------o--|
T2 ----------------|----------------|----------------|--------------oo|
S  --------o-------|--------o---o-oo|--------o-o-----|--ooo----oooo---|
B  o-----o-------o-|o-----o---------|o-----o-------o-|o-----o---------|
   1 + 2 + 3 + 4 +  1 + 2 + 3 + 4 +  1 + 2 + 3 + 4 +  1 + 2 + 3 + 4 + 

C  X---------------|----------------|----------------|X---X-----------|
R  ----x-x-x-x-x-x-|x-x-x-x-x-x-x-x-|x-x-x-x-x-x-x-x-|----------------|
T1 ----------------|----------------|----------------|-----------oo---|
S  --------o-------|--------o-------|--------o-------|o---o--dooo---o-|
B  o---------------|o---------------|o---------------|----------------|
   1 + 2 + 3 + 4 +  1 + 2 + 3 + 4 +  1 + 2 + 3 + 4 +  1 + 2 + 3 + 4 + 

VERSE 2			    
C  X---------------|----------------|----------------|------------X---|
H  ----x-x-x-x-x-x-|x-x-x-x-x-x-x-x-|x-x-x-x-x-x-x-x-|x-x-x-x-x-x-----|
S  ----o-------o---|----o-------o---|----o-------o---|----o-------o---|
B  o-------o-------|o-------o-------|o-------o-------|o-------o-------|
   1 + 2 + 3 + 4 +  1 + 2 + 3 + 4 +  1 + 2 + 3 + 4 +  1 + 2 + 3 + 4 + 

C  X---------------|----------------|X-------X---X---|----------------|
H  ----x-x-x-x-x-x-|x-x-x-x-x-x-x-x-|--x-x-x---x-----|----------------|
T1 ----------------|----------------|----------------|---oo-oo--oo----|
S  ----o-------o---|----o-------o---|o-------o---o--o|ooo--o--oo--o-o-|
B  o-------o-------|o-------o-------|------o---------|----------------|
   1 + 2 + 3 + 4 +  1 + 2 + 3 + 4 +  1 + 2 + 3 + 4 +  1 + 2 + 3 + 4 + 

PRE-CHORUS 2	   
C  X---------------|----------------|----------------|----------------|
R  ----x-x-x-x-x-x-|x-x-x-x-x-x-x-x-|x-x-x-x-x-x-x-x-|x-x-x-x---------|
S  o---o---o---o---|o---o---o---o---|o---o---o---o---|o---o---3-3-3-3-|
B  oooooooooooooooo|oooooooooooooooo|oooooooooooooooo|oooooooo--------|
   1 + 2 + 3 + 4 +  1 + 2 + 3 + 4 +  1 + 2 + 3 + 4 +  1 + 2 + 3 + 4 + 

CHORUS 2	   
C  X---X---X-------|------------X---|----X---X-------|------------X---|
R  ------------x-x-|x-x-x-x-x-x-----|x-x-------x-x-x-|x-x-x-x-x-x-----|
S  ----o-------o---|----o-------o---|----o-------o---|----o-------o---|
B  o-o-----o-----o-|o-------o-o-----|o-o-----o-----o-|o-------o-o-----|
   1 + 2 + 3 + 4 +  1 + 2 + 3 + 4 +  1 + 2 + 3 + 4 +  1 + 2 + 3 + 4 + 

C  ----X---X-------|------------X---|----X---X-------|----------------|
R  x-x-------x-x-x-|x-x-x-x-x-x-----|x-x-------x-----|----------------|
T1 ----------------|----------------|---------------o|--oo---ooooo----|
T2 ----------------|----------------|----------------|------------oooo|
S  ----o-------o---|----o-------o---|----o---o--oooo-|oo--ooo---------|
B  o-o-----o-----o-|o-------o-o-----|o-o-------------|----------------|
   1 + 2 + 3 + 4 +  1 + 2 + 3 + 4 +  1 + 2 + 3 + 4 +  1 + 2 + 3 + 4 + 

GUITAR SOLO 1
C  X---------------|----------------|------------X---|----X-------X-X-|
R  ----x-x-x-x-x-x-|x-x-x-x-x-x-x-x-|----------------|x-x---x-x-x-----|
T1 ----------------|----------------|----f-----------|----------------|
T2 ----------------|----------------|--------f-------|----------------|
S  o---o---o---o---|o---o---o---o---|f-----------o---|o---o---o---o-o-|
B  oooooooooooooooo|oooooooooooooooo|oooooooooooooooo|oooooooooooooooo|
   1 + 2 + 3 + 4 +  1 + 2 + 3 + 4 +  1 + 2 + 3 + 4 +  1 + 2 + 3 + 4 + 

C  ----------------|----------------|------------X---|X-----------X-X-|
R  ----x-x-x-x-x-x-|x-x-x-x-x-x-x-x-|----------------|----x-x-x-x-----|
T1 ----------------|----------------|f---f-----------|----------------|
T2 ----------------|----------------|--------f-------|----------------|
S  o---o---o---o---|o---o---o---o---|------------o---|o---o---o---o-o-|
B  oooooooooooooooo|oooooooooooooooo|oooooooooooooooo|oooooooooooooooo|
   1 + 2 + 3 + 4 +  1 + 2 + 3 + 4 +  1 + 2 + 3 + 4 +  1 + 2 + 3 + 4 + 

C  X---------------|----X-------X---|----------------|X---------------|
R  --x-x-x-x-x-x-x-|----------------|x-x-x-x-x-x-x-x-|----------------|
S  o---o---o---o---|f---o---f---o---|o---o---o---o---|o--dooooooooo-f-|
B  oooooooooooooooo|oooooooooooooooo|oooooooooooooooo|----------------|
   1 + 2 + 3 + 4 +  1 + 2 + 3 + 4 +  1 + 2 + 3 + 4 +  1 + 2 + 3 + 4 + 

VERSE 3
C  X---------------|------------X---|----------------|----------X-X-X-|
H  ----x-x-x-x-x-x-|x-x-x-x-x-x-----|x-x-x-x-x-x-x-x-|x-x-x-----------|
S  ----o-------o---|----o-------o---|----o-------o---|----o----o--o-o-|
B  o-------o-------|o-------o-------|o-------o-------|o-------o-------|
   1 + 2 + 3 + 4 +  1 + 2 + 3 + 4 +  1 + 2 + 3 + 4 +  1 + 2 + 3 + 4 + 

C  X---------------|----------------|X---X-X---------|----------------|
H  ----x-x-x-x-x-x-|x-x-x-x-x-x-x---|----------------|----------------|
T1 ----------------|----------------|-----------oooo-|-oo--ooooo------|
T2 ----------------|----------------|----------------|----------ooooo-|
S  ----o-------o---|----o-------o---|o-o-----ooo----o|o--oo-----------|
B  o-------o-------|o-------o-------|----o-o---------|----------------|
   1 + 2 + 3 + 4 +  1 + 2 + 3 + 4 +  1 + 2 + 3 + 4 +  1 + 2 + 3 + 4 + 

PRE-CHORUS 3   
C  X---------------|----------------|----------------|----------------|
R  ----x-x-x-x-x-x-|x-x-x-x-x-x-x-x-|x-x-x-x-x-x-x-x-|----------------|
T1-----------------|----------------|----------------|----------3-3---|
T2-----------------|----------------|----------------|--------------3-|
S  o---o---o---o---|o---o---o---o---|o---o---o---o---|3-3-3-3-3-------|
B  oooooooooooooooo|oooooooooooooooo|oooooooooooooooo|----------------|
   1 + 2 + 3 + 4 +  1 + 2 + 3 + 4 +  1 + 2 + 3 + 4 +  1 + 2 + 3 + 4 + 

CHORUS 3
C  X---X---X-------|------------X---|----X---X-------|
R  ------------x-x-|x-x-x-x-x-x-----|x-x-------x-x-x-|
S  ----o-------o---|----o-------o---|----o-------o---|
B  o-o-----o-----o-|o-------o-o-----|o-o-----o-----o-|

C  ------------X---|X-X-------------|----------------|
R  x-x-x-x-x-x-----|----x---x---x---|----------------|
T1 ----------------|----------------|---oo--oo-------|
T2 ----------------|----------------|----------oo----|
S  ----o-------o---|----o-------o---|ooo--oo--o--ooo-|
B  o-------o-o-----|o-o-----o-------|----------------|

GUITAR SOLO 2
C  X---------------|----------------|X---------------|----------------|
R  ----x-x-x-x-x-x-|x-x-x-x-x-x-----|----x-x-x-x-x-x-|x-x-x-x---------|
S  o---o---o---o---|o---o---o---f---|o---o---o---o---|o---o---f---f---|
B  oooooooooooooooo|oooooooooooooooo|oooooooooooooooo|oooooooooooooooo|
   1 + 2 + 3 + 4 +  1 + 2 + 3 + 4 +  1 + 2 + 3 + 4 +  1 + 2 + 3 + 4 + 

C  X-----------X---|X---------------|X---------------|X--X--X-----X-X-|
R  ----x-x-x-x-----|----x-x---------|----x-x-x-x-x-x-|----------------|
T2 ----------------|--------f--f--f-|----------------|----------------|
S  o---o---o---o---|o---o-----------|o---o---o---o---|o--o--o--o--o-o-|
B  oooooooooooooooo|oooooooooooooooo|oooooooooooooooo|oooooooooooooooo|
   1 + 2 + 3 + 4 +  1 + 2 + 3 + 4 +  1 + 2 + 3 + 4 +  1 + 2 + 3 + 4 + 

C  X---------------|----------------|X---------------|
R  --x-x-x-x-x-x-x-|x-x-x-x---------|----x-x-x-x-x-x-|
T1 ----------------|------------f---|----------------|
S  o---o---o---o---|o---o---f-------|o---o---o---o---|
B  oooooooooooooooo|oooooooooooooooo|oooooooooooooooo|
   1 + 2 + 3 + 4 +  1 + 2 + 3 + 4 +  1 + 2 + 3 + 4 +  

T1 o-o-o-o-o-o-o-o-|----------3-3---|
T2 o-o-o-o-o-o-o-o-|--------------3-|
S  ----------------|3-3-3-3-3-------|
   1 + 2 + 3 + 4 +  1 + 2 + 3 + 4 +
	
comments
We did not receive enough feedback on this tab! Please rate:
print report bad tab
1 2 3 4 5
I want to post or [tab]
guest
You may want to rate the tab now too:
select rating
Please do not post tabs as comments. Select "correction" instead!