Oops, an error
Loading. Please wait.

Temptation Tab

ver2
ver2

Solo

Whole song

Interactive

More versions @911Tabs.com
688 views 3 this week
1 commentread comment
1 2 3 4 5
excellent!
x 1
Autoscroll
+/-
esc
set tempo
stop
Contributor
Tuning
D# G# C# F# A# D#
Hey! There's an official Ultimate Guitar app which is ideal
for learning songs when you're away from computer. Get the app
WARNING: You are trying to view
                                    content from Ultimate-Guitar.com
                                    in an unauthorized application,
                                    which is prohibited.

                                    Please use an official Ultimate
                                    Guitar Tabs application for iPhone,
                                    iPad or Android to access legitimate
                                    chords, guitar, bass, and drum tabs
                                    from Ultimate-Guitar.com database.

                                    Type "ultimate guitar tabs" in Apple
                                    App Store's or Android Market's
                                    search to find the application.
#----------------------------------PLEASE NOTE---------------------------------#
#This file is the author's own work and represents their interpretation of the #
#song. You may only use this file for private study, scholarship, or research. #
#------------------------------------------------------------------------------#

TEMPTATION
As recorded by Slayer
(From the 1990 Album SEASONS IN THE ABYSS)

Transcribed by Unregistered
        

Words and Music by Kerry King

Gtr I (Eb Ab Db Gb Bb Eb) - 'Untitled'
Gtr II (Eb Ab Db Gb Bb Eb) - 'Untitled'
Gtr III (Eb Ab Db Gb Bb Eb) - 'Untitled'
Gtr IV (Eb Ab Db Gb Bb Eb) - 'Untitled'

 Intro
  Q=188
 4/4
  Gtrs I, II
      PM|        PM|            PM--------|     PM--------|
  S S S S Q  S S S S Q      S S S S S S S S S S S S S S S S
|-----------------------||----------------------------------|
|-----------------------||o---------------------------------|
|-----------------------||----------------------------------|
|---------3----------5--||----------------------------------|
|---------1----------3--||o---------------------------------|
|-3p0-0-0----3p0-0-0----||--3p0-0-0-0-0-0-0-1p0-0-0-0-0-0-0-|


      PM|        PM|
  S S S S Q  S S S S Q   3x E E Q  H
|------------------------||-------------||
|-----------------------o||-------------||
|------------------------||-------------||
|---------3----------5---||-------------||
|---------1----------3--o||-------------||
|-3p0-0-0----3p0-0-0-----||-0-----------||


   Verse 1 & 2
    Q=180
    Gtrs I, II
    PM----|        PM--------------------------------------|       PM
    E S S E E +Q   E S S   E S S E S S E S S E S S   E S S E E +E  E Q
||-----------------------|-------------------------|---------------------|
||o----------------------|-------------------------|---------------------|
||-----------------------|-------------------------|---------------------|
||-----------------------|-------------------------|---------------------|
||o---------4-(4)--------|-------------------------|---------5-(5)---4---|
||--0-0-0-0-2-(2)--0-0-0-|-0-0-0-0-0-0-0-0-0-0-0-0-|-0-0-0-0-3-(3)-0-2---|


    PM----------------------------|        PM----------------------------|
  E S S E S S E S S E S S   E S S E E +Q   E S S   E S S E S S E S S E S S
|-------------------------|----------------------|-------------------------|
|-------------------------|----------------------|-------------------------|
|-------------------------|----------------------|-------------------------|
|-------------------------|----------------------|-------------------------|
|-3-----------------------|---------4-(4)--------|-------------------------|
|-1-1-1-1-1-1-1-1-1-1-1-1-|-0-0-0-0-2-(2)--0-0-0-|-0-0-0-0-0-0-0-0-0-0-0-0-|


  PM----|       PM     PM------------------------------|        PM--|
  E S S E E +E  E Q    S S E E E S S S S S S E   E S S E E +Q   E S S
|--------------------|-------------------------|----------------------|
|--------------------|-------------------------|----------------------|
|--------------------|-------------------------|----------------------|
|--------------------|-------------------------|----------------------|
|---------5-(5)---4--|-------------------------|---------4-(4)--------|
|-0-0-0-0-3-(3)-0-2--|-3-3-3-3-3-2-2-2-2-2-2-2-|-0-0-0-0-2-(2)--0-0-0-|


  PM------------------------------|       PM       PM------------------|
  E S S E S S E S S E S S   E S S E E +E  E Q    E S S E S S E S S E S S
|-------------------------|--------------------|-------------------------|
|-------------------------|--------------------|-------------------------|
|-------------------------|--------------------|-------------------------|
|-------------------------|--------------------|-------------------------|
|-------------------------|---------5-(5)---4--|-3-----------------------|
|-0-0-0-0-0-0-0-0-0-0-0-0-|-0-0-0-0-3-(3)-0-2--|-1-1-1-1-1-1-1-1-1-1-1-1-|


  PM----|        PM----------------------------|
  E S S E E +Q   E S S   E S S E S S E S S E S S
|----------------------|-------------------------|
|----------------------|-------------------------|
|----------------------|-------------------------|
|----------------------|-------------------------|
|---------4-(4)--------|-------------------------|
|-0-0-0-0-2-(2)--0-0-0-|-0-0-0-0-0-0-0-0-0-0-0-0-|


  PM----|       PM       PM------|             PM|        PM|
  E S S E E +E  E Q    E S S E S S Q  Q    S S S S Q  S S S S Q
|--------------------|-------------------|-----------------------||
|--------------------|-------------------|-----------------------||
|--------------------|-------------------|-----------------------||
|--------------------|-------------------|---------3----------5--||
|---------5-(5)---4--|-5-----------3--4--|---------1----------3--||
|-0-0-0-0-3-(3)-0-2--|-3-0-0-0-0-0-1--2--|-3p0-0-0----3p0-0-0----||


 Chorus
      PM--------|     PM--------|       PM|        PM|
  S S S S S S S S S S S S S S S S   S S S S Q  S S S S Q
|---------------------------------|-----------------------|
|---------------------------------|-----------------------|
|---------------------------------|-----------------------|
|---------------------------------|---------3----------5--|
|---------------------------------|---------1----------3--|
|-5p2-2-2-2-2-2-2-3p2-2-2-2-2-2-2-|-3p0-0-0----3p0-0-0----|


      PM--------|     PM--------|       PM|        PM|
  S S S S S S S S S S S S S S S S   S S S S Q  S S S S Q
|---------------------------------|-----------------------|
|---------------------------------|-----------------------|
|---------------------------------|-----------------------|
|---------------------------------|---------3----------5--|
|---------------------------------|---------1----------3--|
|-5p2-2-2-2-2-2-2-3p2-2-2-2-2-2-2-|-3p0-0-0----3p0-0-0----|


      PM--------|     PM--------|       PM|        PM|
  S S S S S S S S S S S S S S S S   S S S S Q  S S S S Q
|---------------------------------|-----------------------|
|---------------------------------|-----------------------|
|---------------------------------|-----------------------|
|---------------------------------|---------3----------5--|
|---------------------------------|---------1----------3--|
|-5p2-2-2-2-2-2-2-3p2-2-2-2-2-2-2-|-3p0-0-0----3p0-0-0----|


  1.              2.
  E E Q  H        E E Q  E E Q
|--------------||---------------||
|-------------o||---------------||
|--------------||---------------||
|-2------------||-2-------------||
|-0-4---------o||-0-4----5-4----||
|---2----------||---2----3-2----||


   Interlude
    Q=168
          PM----|     PM----|     PM|   PM|     PM|
    S  S  S S S S E E S S S S E   S S E S S E E S S Q
||------------------------------|----------------------|
||o-----------------------------|----------------------|
||------------------------------|----------------------|
||----------------7-----------5-|-----4-----7----------|
||o-5h=7----------7-8---------5-|-----4-----7-8-----5--|
||--0-(0)-0-0-0-0-----0-0-0-0---|-0-0---0-0-----0-0-3--|


        PM----|     PM----|
  S  S  S S S S E E S S S S E
|-----------------------------|
|-----------------------------|
|-----------------------------|
|---------------7-----------5-|
|-5h=7----------7-8---------5-|
|-0-(0)-0-0-0-0-----0-0-0-0---|


 1.                        2.
  PM|   PM|     PM|        PM|   PM|     PM|
  S S E S S E E S S Q      S S E S S E E S S  Q
|-----------------------||--------------------------||
|----------------------o||--------------------------||
|-----------------------||--------------------------||
|-----4-----7-----------||-----4-------------12\----||
|-----4-----7-8-----8--o||-----4-----7-8-----10\----||
|-0-0---0-0-----0-0-6---||-0-0---0-0-5-6-0-0--------||


 Guitar solo 1
  Q=176
  Gtr I
   ~~~
                    |--3---|
   H.              +E  E   E
|------------------------------|
|------------------------------|
|-/9---------------(9)-7---9---|
|------------------------------|
|------------------------------|
|------------------------------|
|
| Gtr II
|  PM-----|         PM----------
|  E  S S E E +Q    E    S   S
|------------------------------|
|------------------------------|
|------------------------------|
|------------------------------|
|-----------4-(4)--------------|
|--0--0-0-0-2-(2)---0----0---0-|


               ~                         ~~~
   |---3---|
   E   E   E   H               Q         H..                 +E
|--------------------------------------|--------------------------|
|--------------------------------------|--------------------------|
|-10---9---7---9---------------9-------|-7-------------------(7)s=|
|--------------------------------------|--------------------------|
|--------------------------------------|--------------------------|
|--------------------------------------|--------------------------|
|
|------------------------------------------------|       PM
|  S S   S   S S S S S S S S S S S S S   E   S S E E +E  E Q
|--------------------------------------|--------------------------|
|--------------------------------------|--------------------------|
|--------------------------------------|--------------------------|
|--------------------------------------|--------------------------|
|--------------------------------------|-----------5-(5)---4------|
|--0-0---0---0-0-0-0-0-0-0-0-0-0-0-0-0-|-0---0-0-0-3-(3)-0-2------|


  \0.5/    \0.5/        \0.5/              \3.5
  |----------3----------|
  Q       +Q           +Q         Q       +Q
|-----------------------------------------------------|
|-----------------------------------------------------|
|-5-------(5)----------(5)--------4-------(4)---------|
|-----------------------------------------------------|
|-----------------------------------------------------|
|-----------------------------------------------------|
|
| PM---------------------------------------------------
| E     S        S S S        S S S S S S  S    S S S
|-----------------------------------------------------|
|-----------------------------------------------------|
|-----------------------------------------------------|
|-----------------------------------------------------|
|-----------------------------------------------------|
|-1-----1--------1-1-1--------1-1-1-1-1-1--1----1-1-1-|


  \1.5
  H..                 E
|--------------------------|
|--------------------------|
|-0-------------------4s===|
|--------------------------|
|--------------------------|
|--------------------------|
|
|----------|        PM--|
| E    S S E E +Q   E S S
|--------------------------|
|--------------------------|
|--------------------------|
|--------------------------|
|------------4-(4)---------|
|-0----0-0-0-2-(2)--0-0-0--|


   ~~~
   H.                        +Q
|---------------------------------------|
|---------------------------------------|
|-19------------------------(19)\-------|
|---------------------------------------|
|---------------------------------------|
|---------------------------------------|
|
|  PM------------------------------------
|  S  S S S S S S S S S S S   S   S S S
|---------------------------------------|
|---------------------------------------|
|---------------------------------------|
|---------------------------------------|
|---------------------------------------|
|--0--0-0-0-0-0-0-0-0-0-0-0---0---0-0-0-|


   |---3---|    |---3---|  |---3----|  |--3--|
   E  E    E    E  E    E  E   E    E  E  E  E
|----------------------------------------------|
|----------------------------------------------|
|----------------------------------------------|
|----------------------16-----18---18-19-21-18-|
|-19-17---19---17-19------17-------------------|
|----------------------------------------------|
|
|--------------|                 PM
|  E    S    S  E    E    +E     E     Q
|----------------------------------------------|
|----------------------------------------------|
|----------------------------------------------|
|----------------------------------------------|
|--------------------5----(5)----------4-------|
|--0----0----0--0----3----(3)----0-----2-------|


   |---3---|    |----3----|    |----3----|    |----3----|
   E  E    E    E    E    E    E    E    E    E    E    E
|--------------------------------------------19---21---22---|
|-----------------------------19---21---22------------------|
|----18---19---21---19---21---------------------------------|
|-21--------------------------------------------------------|
|-----------------------------------------------------------|
|-----------------------------------------------------------|
|
|  PM--------------------------------------------------------
|  E    S    S  S S    S    S  S S    S    S  S S    S    S
|-----------------------------------------------------------|
|-----------------------------------------------------------|
|-----------------------------------------------------------|
|-----------------------------------------------------------|
|-----------------------------------------------------------|
|--3----3----3--3-3----3----3--2-2----2----2--2-2----2----2-|


                        ~~~~~
   +Q           +Q      H
|-(22)b24======(22)r---22b24---------|
|------------------------------------|
|------------------------------------|
|------------------------------------|
|------------------------------------|
|------------------------------------|
|
|--------------|              PM--|
|   E      S S   E   E +Q     E S S
|------------------------------------|
|------------------------------------|
|------------------------------------|
|------------------------------------|
|--------------------4-(4)-----------|
|---0------0-0---0---2-(2)----0-0-0--|


                          ~~~
   Q.              +E     Q.            S  S
|-22b25r==========(22)---22------------22-19-|
|--------------------------------------------|
|--------------------------------------------|
|--------------------------------------------|
|--------------------------------------------|
|--------------------------------------------|
|
|  PM-----------------------------------------
|  S    S S S S S   S  S  S  S S S S S  S  S
|--------------------------------------------|
|--------------------------------------------|
|--------------------------------------------|
|--------------------------------------------|
|--------------------------------------------|
|--0----0-0-0-0-0---0--0--0--0-0-0-0-0--0--0-|


   S  S  S  S  S  S  S  S  S   S  E  S  S  S  S
|-19-21-22-24-24-19-21-22-22--19-----------------|
|--------------------------------21-21-21-19-19--|
|------------------------------------------------|
|------------------------------------------------|
|------------------------------------------------|
|------------------------------------------------|
|
|-------------|                   PM
|  E     S  S  E     E    +E      E  Q
|------------------------------------------------|
|------------------------------------------------|
|------------------------------------------------|
|------------------------------------------------|
|--------------------5----(5)--------4-----------|
|--0-----0--0--0-----3----(3)-----0--2-----------|


   S  S  S  S  S  S  S  S  S  S  S  S  S  S  S  S
|-------------------------------------------------|
|-------------------------------------------------|
|-21-21-19-18-19-19-18-18-------------------------|
|-------------------------21-21-19-18-19-19-18-18-|
|-------------------------------------------------|
|-------------------------------------------------|
|
|  PM------------------------------------------|
|  E     S  S  S  S  S  S  S  S  S  S  S  S  S  S
|-------------------------------------------------|
|-------------------------------------------------|
|-------------------------------------------------|
|-------------------------------------------------|
|-------------------------------------------------|
|--1-----1--1--1--1--1--1--1--1--1--1--1--1--1--1-|


   T       T         T       T      T       T     T     T
   |------6-------|  |-----6-----|  |-----6-----| |-----6-----|
   S  S S  S  S   S  S  S S  S S S  S  S S  S S S S S S S S   S
|---------------------------------------------------------------|
|---------------------------------------------------------------|
|-15p12p9-14p11p==8-13p10p7-12p9p6-11p=8p5-10p7p4-9p6p3-8p5p==2-|
|---------------------------------------------------------------|
|---------------------------------------------------------------|
|---------------------------------------------------------------|
|
|  PM---------------|                             PM--------|
|  E       S    S    E       E     +Q             E     S   S
|---------------------------------------------------------------|
|---------------------------------------------------------------|
|---------------------------------------------------------------|
|---------------------------------------------------------------|
|----------------------------4-----(4)--------------------------|
|--0-------0----0----0-------2-----(2)------------0-----0---0---|


   T          T          T          T         T         T         T        T
   |--------6---------|  |--------6--------|  |-------6--------|  |------6-------|
   S  S    S  S  S    S  S  S    S  S  S   S  S  S   S  S  S   S  S S   S  S S   S
|-----------------------------------------------------------------------------------|
|-----------------------------------------------------------------------------------|
|-18p15p==12-17p14p==11-16p13p==10-15p12p==9-14p11p==8-13p10p==7-12p9p==6-11p8p==5--|
|-----------------------------------------------------------------------------------|
|-----------------------------------------------------------------------------------|
|-----------------------------------------------------------------------------------|
|
|  PM--------------------------------------------------------------------------|
|  S    S     S    S     S    S     S    S    S    S    S    S    S   S    S   S
|-----------------------------------------------------------------------------------|
|-----------------------------------------------------------------------------------|
|-----------------------------------------------------------------------------------|
|-----------------------------------------------------------------------------------|
|-----------------------------------------------------------------------------------|
|--0----0-----0----0-----0----0-----0----0----0----0----0----0----0---0----0---0----|


   T        T          T        T        T         T        T       T
   |-------6--------|  |------6-------|  |-------6-------|  |-----6------|
   S  S  S  S  S    S  S  S  S  S  S  S  S   S  S  S  S  S  S  S S  S  S S
|--------------------------------------------------------------------------|
|--------------------------------------------------------------------------|
|-21p18p15-20p17p==14-19p16p13-18p15p12-17p=14p11-16p13p10-15p12p9-14p11p8-|
|--------------------------------------------------------------------------|
|--------------------------------------------------------------------------|
|--------------------------------------------------------------------------|
|
|  PM-----------------|                            PM
|  E        S    S     E        E       +E         E        Q
|--------------------------------------------------------------------------|
|--------------------------------------------------------------------------|
|--------------------------------------------------------------------------|
|--------------------------------------------------------------------------|
|-------------------------------5-------(5)-----------------4--------------|
|--0--------0----0-----0--------3-------(3)--------0--------2--------------|


   T        T          T          T          T        T          T          T
   |-------6--------|  |--------6---------|  |-------6--------|  |--------6---------|
   S  S  S  S  S    S  S  S    S  S  S    S  S  S  S  S  S    S  S  S    S  S  S    S
|-------------------------------------------------------------------------------------||
|-20p18p15-19p17p==14-18p16p==13-17p15p==12-22p20p17-20p19p==16-20p18p==15-19p17p==14-||
|-------------------------------------------------------------------------------------||
|-------------------------------------------------------------------------------------||
|-------------------------------------------------------------------------------------||
|-------------------------------------------------------------------------------------||
|
|  PM----------------------------------------------------------------------------|
|  E        S    S     S    S     S    S     E        S    S     S    S     S    S
|-------------------------------------------------------------------------------------||
|-------------------------------------------------------------------------------------||
|-------------------------------------------------------------------------------------||
|-------------------------------------------------------------------------------------||
|-------------------------------------------------------------------------------------||
|--3--------3----3-----3----3-----3----3-----1--------1----1-----2----2-----2----2----||


  Q=168
                       ~~~~~~~~~~~~~~~~~~~~~~~
   H                   H                  +H.                  +Q
|-22b24---------------22b24============|=(22)-----------------(22)r\--|
|--------------------------------------|------------------------------|
|--------------------------------------|------------------------------|
|--------------------------------------|------------------------------|
|--------------------------------------|------------------------------|
|--------------------------------------|------------------------------|
|
|           PM----|          PM----|       PM-|   PM|     PM|
|  S     S  S S S S E  E     S S S S E     S  S E S S E E S S   Q
|--------------------------------------|------------------------------|
|--------------------------------------|------------------------------|
|--------------------------------------|------------------------------|
|-------------------7----------------5-|--------4-----7---------------|
|--5h====7----------7--8-------------5-|--------4-----7-8-------5-----|
|--0----(0)-0-0-0-0----------0-0-0-0---|---0--0---0-0-----0-0---3-----|


  \7
  W                             +W
|-----------------------------|------------------------|
|-----------------------------|------------------------|
|-----------------------------|------------------------|
|-----------------------------|------------------------|
|-----------------------------|------------------------|
|-0---------------------------|-(0)--------------------|
|
|       PM----|     PM----|      PM-|   PM|     PM|
| S  S  S S S S E E S S S S E    S  S E S S E E S S Q
|-----------------------------|------------------------|
|-----------------------------|------------------------|
|-----------------------------|------------------------|
|---------------7-----------5-|-------4-----7----------|
|-5h=7----------7-8---------5-|-------4-----7-8-----8--|
|-0-(0)-0-0-0-0-----0-0-0-0---|--0--0---0-0-----0-0-6--|


  a W                             +W
|-------------------------------|------------------------|
|-------------------------------|------------------------|
|-7h9---------------------------|-(9)--------------------|
|-------------------------------|------------------------|
|-------------------------------|------------------------|
|-------------------------------|------------------------|
|
|         PM----|     PM----|      PM-|   PM|     PM|
|   S  S  S S S S E E S S S S E    S  S E S S E E S S Q
|-------------------------------|------------------------|
|-------------------------------|------------------------|
|-------------------------------|------------------------|
|-----------------7-----------5-|-------4-----7----------|
|---5h=7----------7-8---------5-|-------4-----7-8-----5--|
|---0-(0)-0-0-0-0-----0-0-0-0---|--0--0---0-0-----0-0-3--|


  +H.                    +Q        +H.                  Q
|--------------------------------|--------------------------||
|--------------------------------|--------------------------||
|-(9)--------------------(9)-----|-(9)------------------x\--||
|--------------------------------|--------------------------||
|--------------------------------|--------------------------||
|--------------------------------|--------------------------||
|
|        PM----|     PM------|      PM-|   PM|     PM|
|  S  S  S S S S E E S S  S  S E    S  S E S S E E S S  Q
|--------------------------------|--------------------------||
|--------------------------------|--------------------------||
|--------------------------------|--------------------------||
|----------------7-------------5-|-------4-------------12---||
|--5h=7----------7-8-----------5-|-------4-----7-8-----10---||
|--0-(0)-0-0-0-0-----0-0--0--0---|--0--0---0-0-5-6-0-0------||


                         <
                                  ~~~~~~~~~~~~~~~~~~~
   W            H     E  Q.      +W             +H      Q   Q
|-----------|-----------------|--------------|-----------------||
|-----------|-----------------|--------------|----------x\-----||
|-----------|-----------[3]---|-([3])--------|-([3])-----------||
|-----------|-----------------|--------------|--------------x--||
|-----------|-----------------|--------------|-----------------||
|-----------|-----------------|--------------|-----------------||
|
|  W           +W                +W             +H.         Q
|-----------|-----------------|--------------|-----------------||
|-----------|-----------------|--------------|-----------------||
|-----------|-----------------|--------------|-----------------||
|-11--------|-(11)------------|-(11)---------|-(11)------------||
|--9--------|--(9)------------|--(9)---------|--(9)---------4--||
|-----------|-----------------|--------------|--------------2--||


   Interlude 2
    Q=162
    Gtrs I, II
      PM------------|     PM------------|     PM--|     PM--|
    E S S E E E E E E   E S S E E E E E E   E S S E E E S S E E
||--------------------|-------------------|---------------------|
||o-------------------|-------------------|---------------------|
||--------------------|-------------------|---------------------|
||--------------------|-------------------|---------------------|
||o-3-----------------|-3-----------------|-3-------4-5-------4-|
||--1-0-0-0-0-0-0-0-0-|-1-0-0-0-0-0-0-0-0-|-1-0-0-0-2-3-0-0-0-2-|


    PM----------|     PM------------|     PM------------|
  E E E E E E E E   E S S E E E E E E   E S S E E E E E E
|-----------------|-------------------|--------------------|
|-----------------|-------------------|--------------------|
|-----------------|-------------------|--------------------|
|-----------------|-------------------|--------------------|
|-3---------------|-3-----------------|-3------------------|
|-1-1-1-1-1-1-1-1-|-1-0-0-0-0-0-0-0-0-|-1-0-0-0-0-0-0-0-0--|


                       1.                 2.
    PM--|     PM--|
  E S S E E E S S E E   E E Q  Q  E E     E E Q  Q  E E
|---------------------|----------------||----------------||
|---------------------|---------------o||----------------||
|---------------------|----------------||----------------||
|---------------------|----------------||----------------||
|-3-------4-5-------4-|-3-----------4-o||-3-----------3--||
|-1-0-0-0-2-3-0-0-0-2-|-1-----------2--||-1-----------1--||


 Verse 3
                                                       2/4
  PM|         PM--------------|
  E E E E E E E E   E E E E E E E E   E E E E E E E E   E E E E
|-----------------|-----------------|-----------------|----------|
|-----------------|-----------------|-----------------|----------|
|-----------------|-----------------|-----------------|----------|
|-----2-0-2-3-----|-------------3-2-|-0-2-------------|-6-5-3-5--|
|-----2-0-2-3-----|-------------3-2-|-0-2-2-4-5-5-5-5-|-6-5-3-5--|
|-0-0---------0-0-|-0-0-0-0-0-0-----|-----0-2-3-3-3-3-|----------|


 4/4                                                   2/4
  PM|         PM--------------|
  E E E E E E E E   E E E E E E E E   E E E E E E E E   E E E E
|-----------------|-----------------|-----------------|---------|
|-----------------|-----------------|-----------------|---------|
|-----------------|-----------------|-----------------|---------|
|-----2-0-2-3-----|-------------3-2-|-0-2-------------|-6-5-3-5-|
|-----2-0-2-3-----|-------------3-2-|-0-2-2-4-5-5-5-5-|-6-5-3-5-|
|-0-0---------0-0-|-0-0-0-0-0-0-----|-----0-2-3-3-3-3-|---------|


 4/4                                                   2/4
  PM|         PM--------------|
  E E E E E E E E   E E E E E E E E   E E E E E E E E   E E E E
|-----------------|-----------------|-----------------|---------|
|-----------------|-----------------|-----------------|---------|
|-----------------|-----------------|-----------------|---------|
|-----2-0-2-3-----|-------------3-2-|-0-2-------------|-6-5-3-5-|
|-----2-0-2-3-----|-------------3-2-|-0-2-2-4-5-5-5-5-|-6-5-3-5-|
|-0-0---------0-0-|-0-0-0-0-0-0-----|-----0-2-3-3-3-3-|---------|


 4/4                                                   2/4
  PM|         PM--------------|
  E E E E E E E E   E E E E E E E E   E E E E E E E E   E E E E
|-----------------|-----------------|-----------------|---------||
|-----------------|-----------------|-----------------|---------||
|-----------------|-----------------|-----------------|---------||
|-----2-0-2-3-----|-------------3-2-|-0-2-------------|---------||
|-----2-0-2-3-----|-------------3-2-|-0-2-2-4-5-5-5-5-|-4-4-4-4-||
|-0-0---------0-0-|-0-0-0-0-0-0-----|-----0-2-3-3-3-3-|-2-2-2-2-||


 4/4
    PM------------|     PM------------|
  E S S E E E E E E   E S S E E E E E E
|-------------------|-------------------|
|-------------------|-------------------|
|-------------------|-------------------|
|-------------------|-------------------|
|-3-----------------|-3-----------------|
|-1-0-0-0-0-0-0-0-0-|-1-0-0-0-0-0-0-0-0-|


    PM--|     PM--|       PM----------|
  E S S E E E S S E E   E E E E E E E E
|---------------------|------------------|
|---------------------|------------------|
|---------------------|------------------|
|---------------------|------------------|
|-3-------4-5-------4-|-3----------------|
|-1-0-0-0-2-3-0-0-0-2-|-1-1-1-1-1-1-1-1--|


    PM------------|     PM------------|     PM--|     PM--|
  E S S E E E E E E   E S S E E E E E E   E S S E E E S S E E   E E Q  Q  E E
|-------------------|-------------------|---------------------|---------------||
|-------------------|-------------------|---------------------|---------------||
|-------------------|-------------------|---------------------|---------------||
|-------------------|-------------------|---------------------|---------------||
|-3-----------------|-3-----------------|-3-------4-5-------4-|-4-----------4-||
|-1-0-0-0-0-0-0-0-0-|-1-0-0-0-0-0-0-0-0-|-1-0-0-0-2-3-0-0-0-2-|-2-----------2-||


 Verse 4
    PM------------|     PM------------|
  E S S E E E E E E   E S S E E E E E E
|-------------------|-------------------|
|-------------------|-------------------|
|-------------------|-------------------|
|-------------------|-------------------|
|-3-----------------|-3-----------------|
|-1-0-0-0-0-0-0-0-0-|-1-0-0-0-0-0-0-0-0-|


    PM--|     PM--|       PM----------|
  E S S E E E S S E E   E E E E E E E E
|---------------------|-----------------|
|---------------------|-----------------|
|---------------------|-----------------|
|---------------------|-----------------|
|-3-------4-5-------4-|-3---------------|
|-1-0-0-0-2-3-0-0-0-2-|-1-1-1-1-1-1-1-1-|


    PM------------|     PM------------|     PM--|     PM--|
  E S S E E E E E E   E S S E E E E E E   E S S E E E S S E E
|-------------------|-------------------|---------------------|
|-------------------|-------------------|---------------------|
|-------------------|-------------------|---------------------|
|-------------------|-------------------|---------------------|
|-3-----------------|-3-----------------|-3-------4-5-------4-|
|-1-0-0-0-0-0-0-0-0-|-1-0-0-0-0-0-0-0-0-|-1-0-0-0-2-3-0-0-0-2-|


  E E E E E E E E   E E E E E E E E
|-----------------|-----------------||
|-----------------|-----------------||
|-----------------|-----------------||
|-----------------|-----------------||
|-3-3-3-3-3-3-3-3-|-3-3-3-3-3-3-3-3-||
|-1-1-1-1-1-1-1-1-|-1-1-1-1-1-1-1-1-||


 Outro
  Q=168
        PM----|     PM----|     PM|   PM|     PM|
  S  S  S S S S E E S S S S E   S S E S S E E S S Q
|-----------------------------|----------------------|
|-----------------------------|----------------------|
|-----------------------------|----------------------|
|---------------7-----------5-|-----4-----7----------|
|-5h=7----------7-8---------5-|-----4-----7-8-----5--|
|-0-(0)-0-0-0-0-----0-0-0-0---|-0-0---0-0-----0-0-3--|


        PM----|     PM----|     PM|   PM|     PM|
  S  S  S S S S E E S S S S E   S S E S S E E S S Q
|-----------------------------|----------------------|
|-----------------------------|----------------------|
|-----------------------------|----------------------|
|---------------7-----------5-|-----4-----7----------|
|-5h=7----------7-8---------5-|-----4-----7-8-----8--|
|-0-(0)-0-0-0-0-----0-0-0-0---|-0-0---0-0-----0-0-6--|


        PM----|     PM----|     PM|   PM|     PM|
  S  S  S S S S E E S S S S E   S S E S S E E S S Q
|-----------------------------|----------------------|
|-----------------------------|----------------------|
|-----------------------------|----------------------|
|---------------7-----------5-|-----4-----7----------|
|-5h=7----------7-8---------5-|-----4-----7-8-----5--|
|-0-(0)-0-0-0-0-----0-0-0-0---|-0-0---0-0-----0-0-3--|


        PM----|     PM----|     PM|   PM|     PM|
  S  S  S S S S E E S S S S E   S S E S S E E S S  Q    Q   Q  H
|-----------------------------|-----------------------|-------------*|
|-----------------------------|-----------------------|-------------*|
|-----------------------------|-----------------------|-------------*|
|---------------7-----------5-|-----4-------------10--|-9\----------*|
|-5h=7----------7-8---------5-|-----4-----7-8------8--|-7\----------*|
|-0-(0)-0-0-0-0-----0-0-0-0---|-0-0---0-0-5-6-0-0-----|-------------*|



Duration Legend
---------------
W - whole; H - half; Q - quarter; E - 8th; S - 16th; T - 32nd; X - 64th; a - acciaccatura
+ - note tied to previous; . - note dotted; .. - note double dotted
Uncapitalized letters represent notes that are staccato (1/2 duration)
Irregular groupings are notated above the duration line
Duration letters will always appear directly above the note/fret number it represents the
duration for.  Duration letters with no fret number below them represent rests.  Multi-
bar rests are notated in the form Wxn, where n is the number of bars to rest for.  Low
melody durations appear below the staff

Tablature Legend
----------------
 h   - hammer-on
 p   - pull-off
 b   - bend
 pb  - pre-bend
 r   - bend release (if no number after the r, then release immediately)
 /\  - slide into or out of (from/to "nowhere")
 s   - legato slide
 S   - shift slide
 - natural harmonic
[n]  - artificial harmonic
n(n) - tapped harmonic
 ~   - vibrato
 tr  - trill
 T   - tap
 TP  - trem. picking
 PM  - palm muting
\n/  - tremolo bar dip; n = amount to dip
 \n  - tremolo bar down
 n/  - tremolo bar up
/n\  - tremolo bar inverted dip
 =   - hold bend; also acts as connecting device for hammers/pulls
 <> - volume swell (louder/softer)
 x   - on rhythm slash represents muted slash
 o   - on rhythm slash represents single note slash

Misc Legend
-----------
 |  - bar
||  - double bar
||o - repeat start
o|| - repeat end
*|  - double bar (ending)
 :  - bar (freetime)
 $  - Segno
 &  - Coda
Tempo markers -  = BPM(8/16=s8/s16), where s8 = swing 8ths, s16 = swing 16ths

comments
We did not receive enough feedback on this tab! Please rate:
print report bad tab
1 2 3 4 5
1 comment total.
0 reply
jk41 wrote on December 18 2012, 03:27 am

shit hot, thank you, wicked tune

I want to post or [tab]
guest
You may want to rate the tab now too:
select rating
Please do not post tabs as comments. Select "correction" instead!