Oops, an error
Loading. Please wait.

If You Cant Hang Tab

ver4
ver4

Intro

Interactive

More versions @911Tabs.com
2,329 views 9 this week
no commentswrite comment
1 2 3 4 5
please rate
add to favorites launch autoscroll
font size
0
reset
Autoscroll
+/-
esc
set tempo
stop
Contributor
Difficulty
Tuning
intermediate
D A D G B E
WARNING: You are trying to view
                                    content from Ultimate-Guitar.com
                                    in an unauthorized application,
                                    which is prohibited.

                                    Please use an official Ultimate
                                    Guitar Tabs application for iPhone,
                                    iPad or Android to access legitimate
                                    chords, guitar, bass, and drum tabs
                                    from Ultimate-Guitar.com database.

                                    Type "ultimate guitar tabs" in Apple
                                    App Store's or Android Market's
                                    search to find the application.
-------------------------------------------------------------------------------
                Sleeping With Sirens - If You Can't Hang
-------------------------------------------------------------------------------
Tabbed by: Zenyth (Alex Zhou)
E-mail: ZenythMusic@gmail.com

So I'm a huge fan of Sleeping With Sirens... however I'm not a huge fan of using 
Drop C tuning and all that jazz :P For this very reason I have tabbed out this song
for other people like me who can't be stuffed with Drop C and want to just use Drop
D hehe xD

Anyway, it's not 100% perfect but take from this tab what you will and please feel
free to let me know if there's anything I should change!

Cheers everyone and happy guitar-ing :D


Tuning: Drop D


Intro (These are the shapes, timing and strumming are pretty easy to figure out)

e|------------------|     e|------|       
B|------------------|     B|------| 
G|------------------| X2  G|----5-|
D|--3----7----2-----|     D|-0--5-|
A|--5----8----3-----|     A|-0--3-|
D|------------------|     D|-0----|



Intro Continued (It's the same as the chorus though as well)
(Again these are the chords, timing and strumming are pretty easy to figure out)

e|------------------------|
B|------------------------|
G|--------5---3---3/5-----| X2
D|-0---3--5---3---3/5-----|
A|-0---3--3---1---1/3-----|
D|-0---3------------------|



Verse (Met a girl at seventeen...)

e|------------|
B|------------|
G|-3----------| X3
D|-3--5--0--5-|
A|-1--5--0--5-|
D|----5--0--5-|


Pre Chorus (Before you go there's one thing...)
e|------|
B|------|
G|-3--5-|
D|-3--5-|
A|-1--3-|
D|------|

If you can't hang then...
e|------|
B|------|
G|-7--3-| X2
D|-7--3-|
A|-5--1-|
D|------|

Chorus (I don't wanna take your precious time...)
e|------------------------|
B|------------------------|
G|--------5---3---3/5-----| X2
D|-0---3--5---3---3/5-----|
A|-0---3--3---1---1/3-----|
D|-0---3------------------|

Post Chorus (You're the lowest type...)
e|-----------|
B|-----------|
G|-3---------|
D|-3----5----|
A|-1----5----|
D|------5----|


VERSE AGAIN (Met a girl stuck in her ways...)


PRECHORUS AGAIN (Before you go...)


CHORUS AGAIN (I don't wanna take your...)


Bridge (I don't want to get things confused...)
e|-------------------|
B|-------------------|
G|-------3-----------| X4
D|-0-----3-X3--5-----|
A|-0-X3--1-----5-X6--|
D|-0-----------5-----|


VERSE AGAIN (Met a girl at 23...)

CHORUS AGAIN

Before the last little verse bit and the chorus there is a slight alteration where Kellin is 
screaming but I'm not quite sure what it is... you might be able to figure it out from the chords
already in this tab but I'm not sure... sorry!! :P

I'll work on it and if I work it out I'll update it but if not, if any of you gusy can help out
I'd be glad to change and add things! :)

Thanks,
Alex Z.

************************************

| /   slide up
| \   slide down
| h   hammer-on
| p   pull-off
| ~   vibrato
| +   harmonic
| x   Mute note
| b   Bend
| pb  Pre-bend
| br  Bend release
| pbr Pre-bend release
| brb Bend release bend

************************************
comments
We did not receive enough feedback on this tab! Please rate:
print report bad tab
1 2 3 4 5
I want to post or [tab]
guest
You may want to rate the tab now too:
select rating
Please do not post tabs as comments. Select "correction" instead!