Oops, an error
Loading. Please wait.

The Left Side Of Everywhere Tab

622 views 3 this week
no commentswrite comment
1 2 3 4 5
excellent!
x 1
Autoscroll
+/-
esc
set tempo
stop
Contributor
Difficulty
Tuning
intermediate
C# G# C# F# A# D#
WARNING: You are trying to view
                                    content from Ultimate-Guitar.com
                                    in an unauthorized application,
                                    which is prohibited.

                                    Please use an official Ultimate
                                    Guitar Tabs application for iPhone,
                                    iPad or Android to access legitimate
                                    chords, guitar, bass, and drum tabs
                                    from Ultimate-Guitar.com database.

                                    Type "ultimate guitar tabs" in Apple
                                    App Store's or Android Market's
                                    search to find the application.
The Left Side of Everywhere - Sleeping With Sirens
Tuning: Drop C# 

I worked for days typing this up. I didn't have access to it at home :/

(00:00-00:05)

D#|------------------------|----------------------|
A#|-10----10----10----10---|-8----8---------------|
F#|----7-----7-----7-----7-|---7----7--10-7--9-10-| x2
C#|------------------------|----------------------|
G#|------------------------|----------------------|
C#|------------------------|----------------------|


(00:05-00:24)

D#|--------------------------|----------------------|--------------------------|
A#|--------------------------|----------------------|--------------------------|
F#|------10-14--10-14--------|-----10-10--7-10--7~~-|------10-14--10-14--------|
C#|--------------------------|----------------------|--------------------------|
G#|-0-0----------------0-0~~-|--0-------------------|-0-0----------------0-0~~-|
C#|-0-0----------------0-0~~-|--0-------------------|-0-0----------------0-0~~-|
                       *                                                 *
D#|------------------------|-----------------|-----------------|-----------------|
A#|------------------------|-----------------|-----------------|-----------------|
F#|-----12-14--12-14--12~~-|-----------------|-----------------|-----------------|
C#|------------------------|-8-8-8-8-8-8-8-8-|-8-8-8-8-8-8-8-8-|-7-7-7-7-7-7-7-7-|
G#|--0---------------------|-8-8-8-8-8-8-8-8-|-8-8-8-8-8-8-8-8-|-7-7-7-7-7-7-7-7-|
C#|--0---------------------|-8-8-8-8-8-8-8-8-|-8-8-8-8-8-8-8-8-|-7-7-7-7-7-7-7-7-|

D#|-----------------|
A#|-----------------|
F#|-----------------| Repeat until the 
C#|-7-7-7-7-7-7-7-7-| open 7 chord
G#|-7-7-7-7-7-7-7-7-|
C#|-7-7-7-7-7-7-7-7-|


(00:25-00:27)

D#|--------------------|-------------------|
A#|--------------------|-------------------|
F#|--------------------|-------------------|
C#|-7-7-7-7-7-7-7-10~~-|--10--10-10--10----|
G#|-7-7-7-7-7-7-7-10~~-|--10--10-10--10----|
C#|-7-7-7-7-7-7-7-10~~-|--10--10-10--10----|


(00:27-00:49)

D#|------------------------|----------------------|
A#|-10----10----10----10---|-8----8---------------|
F#|----7-----7-----7-----7-|---7----7--10-7--9-10-| x2
C#|------------------------|----------------------|
G#|------------------------|----------------------|
C#|------------------------|----------------------|

D#|-------------5--0-8-|-0-8--10-0--12\13/12p8-|-------------------|
A#|-5-6--8-6--8--------|-----------------------|-------------------|
F#|--------------------|-----------------------|-------------------|
C#|--------------------|-----------------------|----------------5~-|
G#|--------------------|-----------------------|-3~--3~--3-3--3-3~-|
C#|--------------------|-----------------------|-3~--3~--3-3--3----|

D#|------------------|
A#|------------------|
F#|------------------| All x2
C#|--5--5~--5-5--5-5-|
G#|--3--3~--3-3--3-3-|
C#|------------------|


(00:50-00:52)

D#|-----------------|-------------|
A#|-----------------|-------------|
F#|-----------------|-------------|
C#|-------5~~~------|----x-x--x-x-|
G#|-3~~~--3~~~--5~~-|----x-x--x-x-|
C#|-3~~~--------5~~-|----x-x--x-x-|


(00:52-01:12)

D#|--------------------------|----------------------|--------------------------|
A#|--------------------------|----------------------|--------------------------|
F#|------10-14--10-14--------|-----10-10--7-10--7~~-|------10-14--10-14--------|
C#|--------------------------|----------------------|--------------------------|
G#|-0-0----------------0-0~~-|--0-------------------|-0-0----------------0-0~~-|
C#|-0-0----------------0-0~~-|--0-------------------|-0-0----------------0-0~~-|
                       *                                                 *
D#|------------------------|-----------------|-----------------|-----------------|
A#|------------------------|-----------------|-----------------|-----------------|
F#|-----12-14--12-14--12~~-|-----------------|-----------------|-----------------|
C#|------------------------|-8-8-8-8-8-8-8-8-|-8-8-8-8-8-8-8-8-|-7-7-7-7-7-7-7-7-|
G#|--0---------------------|-8-8-8-8-8-8-8-8-|-8-8-8-8-8-8-8-8-|-7-7-7-7-7-7-7-7-|
C#|--0---------------------|-8-8-8-8-8-8-8-8-|-8-8-8-8-8-8-8-8-|-7-7-7-7-7-7-7-7-|

D#|-----------------|
A#|-----------------|
F#|-----------------| Repeat until the 
C#|-7-7-7-7-7-7-7-7-| open 7 chord
G#|-7-7-7-7-7-7-7-7-|
C#|-7-7-7-7-7-7-7-7-|


(01:12-01:14)

D#|--------------------|-------------------|
A#|--------------------|-------------------|
F#|--------------------|-------------------|
C#|-7-7-7-7-7-7-7-10~~-|--10--10-10--10----|
G#|-7-7-7-7-7-7-7-10~~-|--10--10-10--10----|
C#|-7-7-7-7-7-7-7-10~~-|--10--10-10--10----|


(01:15-01:37)

D#|------------------------|----------------------|
A#|-10----10----10----10---|-8----8---------------|
F#|----7-----7-----7-----7-|---7----7--10-7--9-10-| x2
C#|------------------------|----------------------|
G#|------------------------|----------------------|
C#|------------------------|----------------------|

D#|-------------5--0-8-|-0-8--10-0--12\13/12p8-|-------------------|
A#|-5-6--8-6--8--------|-----------------------|-------------------|
F#|--------------------|-----------------------|-------------------|
C#|--------------------|-----------------------|----------------5~-|
G#|--------------------|-----------------------|-3~--3~--3-3--3-3~-|
C#|--------------------|-----------------------|-3~--3~--3-3--3----|

D#|------------------|
A#|------------------|
F#|------------------| All x2
C#|--5--5~--5-5--5-5-|
G#|--3--3~--3-3--3-3-|
C#|------------------|


(01:37-01:39)

D#|-----------------|-------------|
A#|-----------------|-------------|
F#|-----------------|-------------|
C#|-------5~~~------|----x-x--x-x-|
G#|-3~~~--3~~~--5~~-|----x-x--x-x-|
C#|-3~~~--------5~~-|----x-x--x-x-|


(01:40-01:50)

D#|-----------------------|------------------------|---------------|
A#|-----------------------|------------------------|---------------|
F#|-----------7-10--10-10-|-10-7--7-7--7-10--10-10-|---------------|
C#|-0-0--0-0--------------|------------------------|-0-0--0--0-0-0-|
G#|-0-0--0-0--5--8---8--8-|--8-5--5-5--5--8---8--8-|-0-0--0--0-0-0-|
C#|-0-0--0-0--------------|------------------------|-0-0--0--0-0-0-|

D#|--------------------|
A#|--------------------|
F#|-9-9--9-9--7-7--7-7-| All x2
C#|--------------------|
G#|-7-7--7-7--5-5--5-5-|
C#|--------------------|


(01:51-02:02)

D#|-------------------------|----------------------------|---------------|
A#|-------------------------|----------------------------|---------------|
F#|------7-10--10-10--10-10-|-10-10--10-10--10-10--10-10-|---------------|
C#|-0-0---------------------|----------------------------|-0-0--0--0-0-0-|
G#|-0-0--5--8---8--8---8--8-|--8--8---8--8---8--8---8--8-|-0-0--0--0-0-0-|
C#|-0-0---------------------|----------------------------|-0-0--0--0-0-0-|

D#|--------------------|
A#|--------------------|
F#|-9-9--9-9--7-7--7-7-| All x2
C#|--------------------|
G#|-7-7--7-7--5-5--5-5-|
C#|--------------------|


(02:02-02:13)

D#|-17-10-13--15-10-13-|    D#|---------------------------------|
A#|--------------------|    A#|-17-10-13--15-10-13--10~--10-10~-|
F#|--------------------| x2 F#|---------------------12~~----12~-|
C#|--------------------|    C#|---------------------------------|
G#|--------------------|    G#|---------------------------------|
C#|--------------------|    C#|---------------------------------|

D#|--------------------------|----------------------------------------------|
A#|--------------------------|----------------------------------------------|
F#|----12-12--12-12-10--9----|-10-10-10-10--9-9-10-10--12-12-12-12--7-7-5-5-|
C#|-----------------------10-|----------------------------------------------|
G#|--------------------------|----------------------------------------------|
C#|--------------------------|----------------------------------------------|

D#|-----------------13--17-13-----17-13----|
A#|--------------15-----------15--------15-|
F#|-----------14---------------------------|
C#|-------15-------------------------------|
G#|-13-17----------------------------------|
C#|----------------------------------------|

D#|-17-17-15--15-13-13-------------------------------------------------------------|
A#|---------------------17-17-15--15-13-13-----------------------------------------|
F#|-----------------------------------------15-15-14--14-12-12--14-14-12--12-10-10-|
C#|--------------------------------------------------------------------------------|
G#|--------------------------------------------------------------------------------|
C#|--------------------------------------------------------------------------------|

D#|--------------------------------------------|-------------------------|
A#|--------------------------------------------|-10~--10~--10~--10~~-----|
F#|-9-9-9-9--9-9-9-9--10-10-10-10--10-10-10-10-|-12b~-12b~-12b~-12b~-----|
C#|--------------------------------------------|-------------------------|
G#|--------------------------------------------|-------------------------|
C#|--------------------------------------------|-------------------------|


(02:13-02:57)

D#|------------------------|----------------------|
A#|-10----10----10----10---|-8----8---------------|
F#|----7-----7-----7-----7-|---7----7--10-7--9-10-| x2
C#|------------------------|----------------------|
G#|------------------------|----------------------|
C#|------------------------|----------------------|

D#|-------------5--0-8-|-0-8--10-0--12\13/12p8-|-------------------|
A#|-5-6--8-6--8--------|-----------------------|-------------------|
F#|--------------------|-----------------------|-------------------|
C#|--------------------|-----------------------|----------------5~-|
G#|--------------------|-----------------------|-3~--3~--3-3--3-3~-|
C#|--------------------|-----------------------|-3~--3~--3-3--3----|

D#|------------------|
A#|------------------|
F#|------------------| All x4
C#|--5--5~--5-5--5-5-|
G#|--3--3~--3-3--3-3-|
C#|------------------|


(02:57-03:04)

D#|-----------------|-----------|
A#|-----------------|-----------|
F#|-----------------|-----------|
C#|-------5~~~------|-----------|
G#|-3~~~--3~~~--5~~-|-----5~~~~-|
C#|-3~~~--------5~~-|-----------|

comments
We did not receive enough feedback on this tab! Please rate:
print report bad tab
1 2 3 4 5
I want to post or [tab]
guest
You may want to rate the tab now too:
select rating
Please do not post tabs as comments. Select "correction" instead!