Oops, an error
Loading. Please wait.

All Hope Is Gone Tab

ver1
ver1

Album

Whole song

More versions @911Tabs.com
56,804 views 39 this week
16 commentsread comments
1 2 3 4 5
excellent!
x 11
Autoscroll
+/-
esc
set tempo
stop
Contributor
Difficulty
Tuning
intermediate
B F# B E G# C#
WARNING: You are trying to view
                                    content from Ultimate-Guitar.com
                                    in an unauthorized application,
                                    which is prohibited.

                                    Please use an official Ultimate
                                    Guitar Tabs application for iPhone,
                                    iPad or Android to access legitimate
                                    chords, guitar, bass, and drum tabs
                                    from Ultimate-Guitar.com database.

                                    Type "ultimate guitar tabs" in Apple
                                    App Store's or Android Market's
                                    search to find the application.
==================================================================================================

                                  "All Hope Is Gone" album tab --- Slipknot

==================================================================================================

                                           Tabbed By: [travis]


***I didn't tab all of these tabs. Some are mine, and the rest are other's tabs that were the best
   version of that song. I'm not taking credit for the other tabs, only my tabs. I just decided
   to put together this tab since there's enough tabs of all the songs from "All Hope Is Gone."

***If a much better version tab of a certain song comes up, then I'll update this tab and put that
   new version in it, along with the author's name.


***Update #1 (May 21, 2009 11:35am):
   I put "Wherin Lies Continue" in the contents list. Sorry that I forgot to add that in. The
   author's name and the tab are both in the contents list, and it comes right after "This Cold
   Black." Thanks for getting this tab approved guys.


***Update #2 (June 23, 2009 8:37pm):
   I finally tabbed out the "Gehenna" solo, and it comes right after the "Gehenna" tab
   by Billybusa. It's already getting 5 star votes, (4 total now).


***Update #3 (June 25, 2009 4:57pm):
   A lot of you guys were asking me to include "Til We Die," and "Child of Burning Time,"
   and "Vermilion Pt. 2 (Bloodstone Mix)." I only added "Til We Die," and "Child of Burning Time."
   I couldn't find "Vermilion Pt. 2 (Bloodstone Mix) but as soon as I see a good tab, or if I
   decide to tab it out myself, then I will post it in here.


************************************************************
***Update #4 (October 28, 2009 6:45pm):
   I just found out that "Dead Memories" is officially in Drop B. It's not in standard Drop A like
   I had thought. I found this out by watching a video on YOUTUBE that had Jim Root giving lessons
   on different Slipknot songs, and he had said that "Dead Memories" was in Drop B. So I had 
   transposed my whole tab into Drop B. It only took 30 minutes to change the whole tab, and now I
   finally got it updated. So be sure to check out that tab now. It's completely much easier to play
   now, and you don't have to stretch your fingers really wide anymore. [travis] .

*************************************************************

***If you want to know who's doing what solo and can't figure it out, then:
   
   Mick == He likes to pick real fast off key solos, and he does some fast sloppy
           sweeps. He likes to do major bends too, and use the wah pedal throughout.
           His solos sound like they have the wah as a filter, but since he's tuned
           so low, the strings give him a nice thick twang sound, but it's still not
           a filter.
   

   Jim == Jim likes to do a lot of legato, and play 32nd note phrases. You can always
          tell it's him when it's hard to catch some of the notes he plays, since
          he's so fast. Also, he plays the same exact shape in all of his solos. Jim
          uses a Jimi Hendrix Fuzz pedal in most of his solos, he rarely plays the wah pedal.
          Even though it sounds like one, it's not a wah pedal, it's just his fast picking.





*******Thanks to everybody rating this huge tab full of of different awesome tabs
       from other tabbers on this site.





List of Contents:


1) ".Execute." ---------------------------------------------------| [travis]
2) "Gematria (The Killing Name)" ---------------------------------| rongold360                NEW!!
3) "Sulfur" ------------------------------------------------------| [travis]
4) "Psychosocial" ------------------------------------------------| [travis]
5) "Dead Memories" -----------------------------------------------| [travis]    UPDATED!!!
6) "Vendetta" ----------------------------------------------------| [travis]
7) "Butcher's Hook" ----------------------------------------------| Survivalism
8) "Gehenna" -----------------------------------------------------| Billybusa
 A) "Gehenna" solo -----------------------------------------------| [travis]                  NEW!!
9) "This Cold Black" ---------------------------------------------| Billybusa / skinlabd1989  NEW!!
10) "Wherein Lies Continue ---------------------------------------| thezohan
11) "Snuff" ------------------------------------------------------| [travis]
12) "All Hope Is Gone" -------------------------------------------| Unregistered



SPECIAL EDITION BONUS SONGS:

1) "Child of Burning Time" ---------------------------------------| metalelite7
2) "Til We Die" --------------------------------------------------| Broli



============================================================================
============================================================================
-------------------------------------------------------------------------------
			     ".Execute." --- Slipknot
-------------------------------------------------------------------------------


Tabbed by: [travis]


*There's probably no reason why I should even bother in tabbing out this song,
 but, whatever. It's really easy to figure out, and there's only 3 different riffs
 that are being played in this song.

Tuning:  Drop B [B F# B E G# C#] (low to high)
                [B Gb B E Ab Db] in case you don't know #s, or you don't have
                                 #s on your tuning device for some reason.


Key: F Major (F G A Bb C D E)

Tuning:

w = whammy bar
-1 = push down the whammy bar one whole step
x/x/ = pick slide
! = tremelo pick
~ = ring out
__ = push whammy bar down slowly

Guitar 1:  Play this over and over again until the end of the song.
           *If you don't have a whammy bar, then slowly slide down
            the neck after you pick the 19th fret. Only on the whammy
            bar part though.****
                                    -1_____
C#|------------19-----------------19w------|
G#|----------------------------------------|
E |----------------------------------------|
B |-x/x/x/x/-----------x/x/x/x/------------|
F#|-x/x/x/x/-----------x/x/x/x/------------|
B |----------------------------------------|

=====================================
Guitar 2: This comes in halfway through the song.
          Use a lot of distortion and heavy reverb.

C#|-------------------------|
G#|-------------------------|
E |-------------------------|
B |-0~~~~~~~~~~~~~~~~~~~~~~~| Let this ring out for the rest of the song.
F#|-0~~~~~~~~~~~~~~~~~~~~~~~|
B |-0~~~~~~~~~~~~~~~~~~~~~~~|

======================================
Guitar 3: This comes in a couple seconds after Guitar 2's part.


C#|----|
G#|----|
E |----|
B |----| Keep tremelo picking this until the end of the song.
F#|----| *I think they're 32nd notes that are being picked*
B |-0!-|


That's it. Pretty easy.
Please Rate and Comment My Tab.
[travis]

END

=====================================================================================
=====================================================================================
/Gematria (The Killing Name)/

/Slipknot/

/tabbed by rongold360/

/To the best of my abilities./

/Drop B: Drop D tuning then 1 and 1/2 steps lower./

*Side note: There is a solo.

/Guitar 1: James Root./
/Guitar 2: Mick Thomson./

INTRO

 Gtr. 1
/----------------------------------------------------------------/
/----------------------------------------------------------------/
/----------------------------------------------------------------/
/-------4---3---------------2h3p2h3-1h2p1h2-0h1p0h1--------------/
/-------2---1-----2---3------------------------------------------/
/---0-0---0---0-0-2-0-3-0-0--------------------------------------/

 Gtr. 2
/----------------------------------------------------------------/
/----------------------------------------------------------------/
/----------------------------------------------------------------/
/---------------------------2h3p2h3-1h2p1h2-0h1p0h1--------------/
/----------------------------------------------------------------/
/----------------------------------------------------------------/

 Gtr. 1
/----------------------------------------------------------------/
/----------------------------------------------------------------/
/----------------------------------------------------------------/
/--4---3---------------------------------------------------------/
/--2---1-----2-0-3-----5h6p5-----4h5p4-----3h4p3-----------------/
/----0---0-0-2-0-3-0-0-------0-0-------0-0-------5h6p5-4h5p4p0---/

 Gtr. 2
/----------------------------------------------------------------/
/----------------------------------------------------------------/
/----------------------------------------------------------------/
/----------------------------------------------------------------/
/----------------------5h6p5-----4h5p4-----3h4p3-----------------/
/----------------------------0-0-------0-0-------5h6p5-4h5p4-----/

 Gtr. 1
/----------------------------------------------------------------/
/----------------------------------------------------------------/
/----------------------------------------------------------------/
/---5-----4-------------3/4--------------------------------------/
/---6-----5-----2/3-----1/2-----7h8p7h8---------6h7p6h7----------/
/-----0-0---0-0-2/3-0-0-----0-0---------7h8p7h8------------------/

 Gtr. 2

/----------------------------------------------------------------/
/----------------------------------------------------------------/
/----------------------------------------------------------------/
/----------------------------------------------------------------/
/-------------------------------7h8p7h8---------6h7p6h7----------/
/---------------------------------------7h8p7h8------------------/

 Gtr. 1 and 2
/----------------------------------------------------------------/
/----------------------------------------------------------------/
/----------------------------------------------------------------/
/-------4---3---------------2h3p2h3-1h2p1h2-0h1p0h1--------------/
/-------2---1-----2---3------------------------------------------/
/---0-0---0---0-0-2-0-3-0-0--------------------------------------/

/----------------------------------------------------------------/
/----------------------------------------------------------------/
/----------------------------------------------------------------/
/--4---3---------------------------------------------------------/
/--2---1-----2-0-3-----5h6p5-----4h5p4-----3h4p3-----------------/
/----0---0-0-2-0-3-0-0-------0-0-------0-0-------5h6p5-4h5p4p0---/

/----------------------------------------------------------------/
/----------------------------------------------------------------/
/----------------------------------------------------------------/
/---5-----4-------------3/4--------------------------------------/
/---6-----5-----2/3-----1/2-----7h8p7h8---------6h7p6h7----------/
/-----0-0---0-0-2/3-0-0-----0-0---------7h8p7h8------------------/

 Gtr. 1
/----------------------------------------------------------------/
/----------------------------------------------------------------/
/----------------------------------------------------------------/
/-------4---3----------------------------------------------------/
/-------2---1-----2-3------4-7-4h5p4h5---------------------------/
/---0-0---0---0-0-2-3-0-0----------------------------------------/

 Gtr. 2
/----------------------------------------------------------------/
/----------------------------------------------------------------/
/----------------------------------------------------------------/
/-------4---3----------------------------------------------------/
/-------2---1-----2-3--------------------------------------------/
/---0-0---0---0-0-2-3-0-0--5-8-4h7p4h7---------------------------/

 Gtr. 1 and 2
/----------------------------------------------------------------/
/----------------------------------------------------------------/
/----------------------------------------------------------------/
/-------4-3------------------------------------------------------/
/-------2-1---2-3-0-5--------------------------------------------/
/---0-0-----0-2-3-0-5-8-4h7p4h7----------------------------------/


/----------------------------------------------------------------/
/----------------------------------------------------------------/
/-------5-----4--------------------------------------------------/
/-------5-----4-------------3/4----------------------------------/
/-------6-----5-----2/3-----1/2----------------------------------/
/---0-0---0-0---0-0-2/3-0-0--------------------------------------/

PRE-VERSE

 Gtr. 1, Gtr. 2 enters 3rd time
/----------------------------------------------------------------/
/----------------------------------------------------------------/
/----------------------------------------------------------------/
/----------------------------------------------------------------/
/----------------------------------------------------------------/
/---0-0-0-1-0-1.75*-0-0-1-0-0-3*-0-0-0h1-------------------------/
 [pinch harmonic located approx. 3/4 the distance between 1st and 2nd frets.]

VERSE

 Gtr. 1 and 2

/----------------------------------------------------------------/
/----------------------------------------------------------------/
/----------------------------------------------------------------/
/-------------4--------------------------------------------------/
/---0-----1---2-----6-----0h1------------------------------------/
/---0-0-0-1-0---0-0-6-0-0-0h1------------------------------------/

 Gtr. 1 [During verse, you can hear for time]
/----------------------------------------------------------------/
/----------------------------------------------------------------/
/----------------------------------------------------------------/
/----------------------------------------------------------------/
/---2*b-2p0-----3p2----------------------------------------------/
/-----------2p0--------------------------------------------------/

 Gtr. 1 and 2 [Again, listen for when to play]
/----------------------------------------------------------------/
/----------------------------------------------------------------/
/-----------5-5-3-3----------------------------------------------/
/---6-6-5-5-3-3-1-1----------------------------------------------/
/---6-6-5-5-3-3-1-1----------------------------------------------/
/---6-6-5-5-3-3-1-1----------------------------------------------/

INTERLUDE

 Gtr. 1
/----------------------------------------------------------------/
/---------------------------------------------------9-9-8-8------/
/-----5-5----------4-4----------5-5------------------------------/
/-----5-5-6--------4-4-6--------5-5-6-6--------------------------/
/---0-3-3-6------0-2-2-6------0-3-3-6-6-----9-9-8-8--------------/
/---0-----6-5p0--0-----6-5p0--0-----6-6-5p0----------------------/

/----------------------------------------------------------------/
/----------------------------------------------------------------/
/-----5-5----------4-4----------5-5------------------------------/
/-----5-5-6--------4-4-6--------5-5-6-6-5-5-------10\------------/
/---0-3-3-6------0-2-2-6------0-3-3-6-6-5-5-6-5-3-10\------------/
/---0-----6-5p0--0-----6-5p0--0-----6-6-5-5-6-5-3----------------/

VERSE

PRE-CHORUS

 Gtr. 1
/---------------------------------------------------------------------/
/---------------------------------------------------------------------/
/---------------------------------------------------------------------/
/---0-0-0-0-0-0-1-1-1-1-1-1-2-2-2-2-------------6-6-6-6-6-6-5-5-5-5---/
/-----------------------------------2-2-2-2-2-2-----------------------/
/---------------------------------------------------------------------/

 Gtr. 2
/---------------------------------------------------------------------/
/---------------------------------------------------------------------/
/---------------------------------------------------------------------/
/---------------------------------------------------------------------/
/---------------------------1-1-1-1-------------------------6-6-6-6---/
/---0-0-0-0-0-0-1-1-1-1-1-1---------2-2-2-2-2-2/6-6-6-6-6-6-----------/

REPEAT PRE-CHORUS AS CHORUS

INTERLUDE

 Gtr. 1
/----------------------------------------------------------------/
/----------------------------------------------------------------/
/----------------------------------------------------------------/
/----------------------------------------------------------------/
/---0-0-5-0-6-0-5--5-6-5-0-3-0-1---------------------------------/
/---0-0-5-0-6-0-5--5-6-5-0-3-0-1---------------------------------/

 Gtr. 2

/----------------------------------------------------------------/
/----------------------------------------------------------------/
/----------------------------------------------------------------/
/---0------------------------------------------------------------/
/---0--------------5-6-5-0-3-0-1---------------------------------/
/---0--------------5-6-5-0-3-0-1---------------------------------/

NEXT CHORUS

Gtr. 1 and 2
/----------------------------------------------------------------/
/----------------------------------------------------------------/
/--------------------------8-7-----------------------------------/
/--------------------------6-7-----------------------------------/
/---0-0-5--6--5--5-6-5-0-3-6-5-----------------------------------/
/---0-0-5--6--5--5-6-5-0-3---------------------------------------/

 The rest is BASICALLY the same as previous riffs.

SOLO

 Are you ready?

 Gtr. 1
/---18-19-16-16-18----19-18-18-19-16-19-18-17-16-19-18-16--------/
/------------------19--------------------------------------------/
/----------------------------------------------------------------/
/----------------------------------------------------------------/
/----------------------------------------------------------------/
/----------------------------------------------------------------/

/---18-19-18-16----18-17-16-16-20-18-16-17-19-17----------18-18--/
/---------------19-------------------------------20-19-18--------/
/----------------------------------------------------------------/
/----------------------------------------------------------------/
/----------------------------------------------------------------/
/----------------------------------------------------------------/

 Gtr. 2 and 3 (3 is bonus)
/----------------------------------------------------------------/
/----------------------------------------------------------------/
/----------------------------------------------------------------/
/----------------------------------------------------------------/
/---8---8--8--8--8--8--8----9---9--9--9--6--6--6--6--------------/
/---8---8--8--8--8--8--8----9---9--9--9--6--6--6--6--------------/
 [Listen for pattern.]

 Gtr. 1
/---16-------------------------------------------------18--------/
/------18-18-16-16-18-19-18-16-19-19-18-18-16-16-18-19-----------/
/----------------------------------------------------------------/
/----------------------------------------------------------------/
/----------------------------------------------------------------/
/----------------------------------------------------------------/

/---18-16--------------------------------------------------------/
/---------19-18-16----16-18--------------------------------------/
/------------------18-------18-16-15-16-15----18-16-15-15--------/
/------------------------------------------18--------------------/
/----------------------------------------------------------------/
/----------------------------------------------------------------/

 Gtr. 2
/----------------------------------------------------------------/
/----------------------------------------------------------------/
/----------------------------------------------------------------/
/--------------------------------------11-10-9-------------------/
/---8---8--8--8--8--8--8----12-11-10-9---------------------------/
/---8---8--8--8--8--8--8-----------------------------------------/

 Gtr. 3

/----------------------------------------------------------------/
/----------------------------------------------------------------/
/----------------------------------------------------------------/
/----------------------------------------------------------------/
/---8---8--8--8--8--8--8----9---9--9--9--11--11--11--11----------/
/---8---8--8--8--8--8--8----9---9--9--9--11--11--11--11----------/

 Gtr. 1                                    [Bend 1 and 1/2 step.]
/---------------------15/19----18~--------19-19b------18-----5---/
/-------------------------------------21------------------6------/
/-------------------------------------------------5/7------------/
/---15----13----12-----------------------------------------------/
/----------------------------------------------------------------/
/----------------------------------------------------------------/

 Gtr. 2 and 3
/-------------------------------------------------------------------/
/-------------------------------------------------------------------/
/-------------------------------------------------------------------/
/-------------------------------------------------------------------/
/---8--8-8-8-8-8-8--9-9-9-9--6-6-6-6--8--8-8-8-8-8-8--9-9-9-9-11----/
/---8--8-8-8-8-8-8--9-9-9-9--6-6-6-6--8--8-8-8-8-8-8--9-9-9-9-11-8\-/

 Gtr. 1
/----------------------------------------------------------------/
/---18~----------------------------------------------------------/
/----------------------------------------------------------------/
/----------------------------------------------------------------/
/----------------------------------------------------------------/
/----------------------------------------------------------------/

 Gtr. 2
/---8b-8p6h8-5h6h8p6-5h6p5---5-----------------------------------/
/--------------------------8---8p6p5-----------------------------/
/----------------------------------------------------------------/
/----------------------------------------------------------------/
/----------------------------------------------------------------/
/----------------------------------------------------------------/

/----------------------------------------------------------------/
/---6p5\4\3----5\-8p5--------------------------------------------/
/-----------5\--------8p7-5\4------------------------------------/
/-----------------------------7\5--------------------------------/
/----------------------------------------------------------------/
/----------------------------------------------------------------/

/----------------------------------------------------------------/
/----------------------------------------------------------------/
/---4h5p4--------------------------------------------------------/
/---------7\3h5p3-2h3h5-3p2--------------------------------------/
/---------------------------5p3\---------------------------------/
/----------------------------------------------------------------/

Gtr. 1 and 3
/-------------------------------------------------------------------/
/-------------------------------------------------------------------/
/-------------------------------------------------------------------/
/---0---------------------6---------------------5-------------------/
/---0--0--0--0--0--0--0---6--6--6--6--6--6--6---5--5--5--5--5--5--5-/
/---0--0--0--0--0--0--0---6--6--6--6--6--6--6---5--5--5--5--5--5--5-/

                                                      [Cont.]
/----------------------------------------------------------------/
/----------------------------------------------------------------/
/----------------------------------------------------------------/
/---8--------3---------------------------------------------------/
/---8--8--8--3--3--3---------------------------------------------/
/---8--8--8--3--3--3---------------------------------------------/

 Gtr. 2
/----------------------X-12h13p12h13p12h13h17p13-12h13p12--------/
/--------------------X-------------------------------------------/
/------------------X---------------------------------------------/
/----------------------------------------------------------------/
/---\2/14\-------X-----------------------------------------------/
/----------0h3p0-X-----------------------------------------------/

/------------12h13-12----------12-13h17-12h13-12-----------------/
/---15\12h13----------15-12-13-------------------15-13p12\10-----/
/----------------------------------------------------------------/
/----------------------------------------------------------------/
/----------------------------------------------------------------/
/----------------------------------------------------------------/

/----------------------------------------------------------------/
/----------------------------------------------------------------/
/---14p12p10\9h10p9---9-12-9-10p9---9-12-14p12p10\9-9------------/
/-------------------9-------------9-------------------9-10-9-----/
/----------------------------------------------------------------/
/----------------------------------------------------------------/

/----------------------------------------------------------------/
/----------------------------------------------------------------/
/----------------------------------------------------------------/
/----------------------------------------------------------------/
/---12p10\8-7-8-10-7---------------------------------------------/
/----------------------------------------------------------------/
End of solo! Congradulations! Give your self a hand!

PRE-CHORUS (After solo)

 Gtr. 1
/----------------------------------------------------------------/
/----------------------------------------------------------------/
/---7-5-7-8--7-5-7-8--7-5-7-8/10--10\5---------------------------/
/---X-X-X-X--X-X-X-X--X-X-X-X--X---X-X---------------------------/
/---5-3-5-6--5-3-5-6--5-3-5-6/-8---8\3---------------------------/
/----------------------------------------------------------------/

 Gtr. 2
/----------------------------------------------------------------/
/----------------------------------------------------------------/
/---10-9-10-12--10-9-10-12--10-9-10-12/14-14\12------------------/
/----X-X--X--X---X-X--X--X---X-X--X--X-----x---------------------/
/----8-7--8-10---8-7--8-10---8-7--8-10/14-14\12------------------/
/----------------------------------------------------------------/

 Gtr. 3 (Extra)
/----------------------------------------------------------------/
/----------------------------------------------------------------/
/----------------------------------------------------------------/
/----------------------------------------------------------------/
/---0-0-0-0-0-0-0-0-6-6-6-6-6-6-6-5-5-5-5-5-5-5-5-/8-8-8\3-3-3-3-/
/---0-0-0-0-0-0-0-0-6-6-6-6-6-6-6-5-5-5-5-5-5-5-5-/8-8-8\3-3-3-3-/

 Gtr. 4 (Extra)
/--------------------------------------------------------------10-10-10-10-/
/--------------------------------------------------10-10-10-10-------------/
/--------------------------7-7-7-7---------7-7-7-7-------------------------/
/------------------7-7-7-7---------7-7-7-7---------------------------------/
/--5-5-5-5-8-8-8-8---------------------------------------------------------/
/--------------------------------------------------------------------------/

 Gtr. 5 (Extra)
/--------------------------10-10-10-10-13-13-13-13---------------/
/--------------10-10-10-10---------------------------------------/
/--10-10-10-10-------------------------------------14-14-14-14---/
/----------------------------------------------------------------/
/----------------------------------------------------------------/
/----------------------------------------------------------------/

                                                  [Gtr. 5 Cont.]
/--------------13-13-13-13-17-17-20------------------------------/
/--15-15-15-15---------------------------------------------------/
/----------------------------------------------------------------/
/----------------------------------------------------------------/
/----------------------------------------------------------------/
/----------------------------------------------------------------/


/This isn't it... i mean, just repeat previous riffs by listening to the song. Comment
corrections if I make a mistake. Rate please./

END
=====================================================================================
=====================================================================================
-------------------------------------------------------------------------------
			     "Sulfur" --- Slipknot
-------------------------------------------------------------------------------

Tabbed by: [travis]


Tuning: Drop B --- B F# B E G# C# (low to high)
                   B Gb B E Ab Db (low to high) if you don't have # on your tuner.


Key: F Major (F G A Bb C D E)


Legend:

... = palm mute
h = hammer on
p = pull off
b = bend
__ = hold bend
! = tremelo pick
1 = whole step bend
.5 = half step bend
1.5 = step and a half bend
2 = two step bend
/ = slide up
\ = slide down
h/ = pick once
p\ = pick once
h/p\ = pick once
p\h/ = pick once
x = muffled string
~ = vibrato
* = pinch harmonic


==========================================
Intro:

Guitars 1 and 2:
C#|-----------------------------------------------------------------------------|
G#|-----------------------------------------------------------------------------|
E |-----------------------------------------------------------------------------|
B |-------6~~~---5~~~------------5--4---------6~~~---5~~~-----------5--3--------|
F#|-12p\--8~~~---7~~~----3---5---3--2--3--5---8~~~---7~~~---3---5---3--2--3--5--|
B |-12p\--6~~~---5~~~----3---5---------3--5---6~~~---5~~~---3---5---------3--5--|


===========================================
Guitars 1 and 2:
C#|-----------------------------------|
G#|-----------------------------------|
E |-----------------------------------|
B |-6~~~---5~~~------------5--4-------| x2
F#|-8~~~---7~~~----3---5---3--2--3--5-|
B |-6~~~---5~~~----3---5---------3--5-|

===========================================

Guitars 1 and 2:
C#|--------------------------------------------------------------|
G#|--------------------------------------------------------------|
E |--------------------------------------------------------------|
B |--------------------------------------------------------------| x2
F#|--------------------------------------------3!---2!-----------|
B |-6!----------5!------------3!-------5!----------------3!---5!-|


End of Intro.
===========================================
Break 1:

Guitar 1:
C#|-----------------------------------------------------------------------|
G#|-----------------------------------------------------------------------|
E |-----------------------------------------------------------------------|
B |-----------------------------------------------------------------------|
F#|-------------------------------------5h6p5---5---------3h5-------------|
B |-5h6p5-0-0-0-0-0-0-1h3p1-0-0-0-0-0-0-------6---6-5-3-5-----0-0-0-0-0-0-|
          ...........       ...........       ...........     ...........

Guitar 2:
C#|-----------------------------------------------------------------------|
G#|-----------------------------------------------------------------------|
E |-----------------------------------------------------------------------|
B |-----------------------------------------------------------------------|
F#|-----------------------------------------------------------------------|
B |-5h6-------------------------------------------------------------------|

===========================================
Guitars 1 and 2:
C#|-------------------------------------------------------------------------|
G#|-------------------------------------------------------------------------|
E |-------------------------------------------------------------------------|
B |-------------------------------------------------------------------------|
F#|-------------------------------------5h6p5---5-8-6-5-6-5h6p5---5---------|
B |-5h6p5-0-0-0-0-0-0-1h3p1-0-0-0-0-0-0-------6-----------------6---6-5-3-5-|
          ...........       ...........       ...........       ...........

End of Break 1.
=============================================
Verse 1:

Guitars 1 and 2:
C#|-------------------------------------------------------------------------|
G#|-------------------------------------------------------------------------|
E |-------------------------------------------------------------------------|
B |-------------------------------------------------------------------------|
F#|---------------------------------------5h6p5---5---------3h5-------------|
B |-5h6p5-0-0-0-0-0-0-1h3p1p0-0-0-0-0-0-0-------6---6-5-3-0-----0-0-0-0-0-0-|
          ...........         ...........       ...........     ...........

==============================================
Guitars 1 and 2:
C#|---------------------------------------------------------------------------|
G#|---------------------------------------------------------------------------|
E |---------------------------------------------------------------------------|
B |---------------------------------------------------------------------------|
F#|---------------------------------------5h6p5---5-8-6-5-6-5h6p5---5---------|
B |-5h6p5-0-0-0-0-0-0-1h3p1p0-0-0-0-0-0-0-------6-----------------6---6-5-3-5-|
          ...........         ...........       ...........       ...........

==============================================
Guitars 1 and 2:
C#|-------------------------------------------------------------------------|
G#|-------------------------------------------------------------------------|
E |-------------------------------------------------------------------------|
B |-------------------------------------------------------------------------|
F#|---------------------------------------5h6p5---5---------3h5-------------|
B |-5h6p5-0-0-0-0-0-0-1h3p1p0-0-0-0-0-0-0-------6---6-5-3-0-----0-0-0-0-0-0-|
          ...........         ...........       ...........     ...........

==============================================
Guitars 1 and 2:

C#|---------------------------------------------------------------------------|
G#|---------------------------------------------------------------------------|
E |---------------------------------------------------------------------------|
B |---------------------------------------------------------------------------|
F#|---------------------------------------5h6p5---5-8-6-5-6-5h6p5---5---------|
B |-5h6p5-0-0-0-0-0-0-1h3p1p0-0-0-0-0-0-0-------6-----------------6---6-5-3-5-|
          ...........         ...........       ...........       ...........

==============================================
Break 2:

Guitar 1:
C#|-----------------------------------|
G#|-----------------------------------|
E |-----------------------------------|
B |-6~~~---5~~~------------5--4-------| x2
F#|-8~~~---7~~~----3---5---3--2--3--5-|
B |-6~~~---5~~~----3---5---------3--5-|

Guitar 2: use a phaser and a wah pedal.
          Do slow swells with your wah pedal.
C#|-----------------------------------------------------------------------|
G#|-----------------------11h13~~~~~~~11h13~~~~~~~13~~~~~~~~~~~~~11h13~~~~|
E |-10~~~~~~~~~~~~~~~~~~~~------------------------------------------------|
B |-----------------------------------------------------------------------|
F#|-----------------------------------------------------------------------|
B |-----------------------------------------------------------------------|

End of Break 2.
==============================================
Verse 2:

Guitars 1 and 2:
C#|-------------------------------------------------------------------------|
G#|-------------------------------------------------------------------------|
E |-------------------------------------------------------------------------|
B |-------------------------------------------------------------------------|
F#|---------------------------------------5h6p5---5---------3h5-------------|
B |-5h6p5-0-0-0-0-0-0-1h3p1p0-0-0-0-0-0-0-------6---6-5-3-0-----0-0-0-0-0-0-|
          ...........         ...........       ...........     ...........

==============================================
Guitars 1 and 2:
C#|---------------------------------------------------------------------------|
G#|---------------------------------------------------------------------------|
E |---------------------------------------------------------------------------|
B |---------------------------------------------------------------------------|
F#|---------------------------------------5h6p5---5-8-6-5-6-5h6p5---5---------|
B |-5h6p5-0-0-0-0-0-0-1h3p1p0-0-0-0-0-0-0-------6-----------------6---6-5-3-5-|
          ...........         ...........       ...........       ...........

==============================================
Guitars 1 and 2:
C#|-------------------------------------------------------------------------|
G#|-------------------------------------------------------------------------|
E |-------------------------------------------------------------------------|
B |-------------------------------------------------------------------------|
F#|---------------------------------------5h6p5---5---------3h5-------------|
B |-5h6p5-0-0-0-0-0-0-1h3p1p0-0-0-0-0-0-0-------6---6-5-3-0-----0-0-0-0-0-0-|
          ...........         ...........       ...........     ...........

==============================================
Guitars 1 and 2:
C#|---------------------------------------------------------------------------|
G#|---------------------------------------------------------------------------|
E |---------------------------------------------------------------------------|
B |---------------------------------------------------------------------------|
F#|---------------------------------------5h6p5---5-8-6-5-6-5h6p5---5---------|
B |-5h6p5-0-0-0-0-0-0-1h3p1p0-0-0-0-0-0-0-------6-----------------6---6-5-3-5-|
          ...........         ...........       ...........       ...........

End of Verse 2.
===============================================
Chorus 1:


Guitars 1 and 2:
C#|----------------------------------------------------------------------|
G#|----------------------------------------------------------------------|
E |---------------------------3-2-0--------------------------------------|
B |-7---7--7p5--7~~~--7--7p5--------1--7---7--7p5--7~~~--7--7p5----------|
F#|-5---5--5----5~~~--5--5-------------5---5--5----5~~~--5--5------------|
B |-0---0--0----0~~~--0--0-------------0---0--0----0~~~--0--0----6-5-3-0-|
                                                                 .....

================================================
Guitars 1 and 2:
C#|-------------------------------------------------------------|
G#|-------------------------------------------------------------|
E |-------------------------------------------------------------|
B |-------------------------------------------------------------|
F#|-----------------------------------------------------6-5-3-0-|
B |-1~~~~3-1-0-1~~~~1-1-1-1-3-1-0-3~~~~5-3-0-3~~~~3-5-4---------|


================================================
Guitars 1 and 2:
C#|----------------------------------------------------------------------|
G#|----------------------------------------------------------------------|
E |---------------------------3-2-0--------------------------------------|
B |-7---7--7p5--7~~~--7--7p5--------1--7---7--7p5--7~~~--7--7p5----------|
F#|-5---5--5----5~~~--5--5-------------5---5--5----5~~~--5--5------------|
B |-0---0--0----0~~~--0--0-------------0---0--0----0~~~--0--0----6-5-3-0-|
                                                                 .....

================================================
Guitars 1 and 2:
C#|-------------------------------------------------------------|
G#|-------------------------------------------------------------|
E |-------------------------------------------------------------|
B |-------------------------------------------------------------|
F#|-----------------------------------------------------6-5-3-0-|
B |-1~~~~3-1-0-1~~~~1-1-1-1-3-1-0-3~~~~5-3-0-3~~~~3-5-4---------|

End of Chorus 1.
================================================
Break 3:

Guitar 1:
C#|-----------------------------------|
G#|-----------------------------------|
E |-----------------------------------|
B |-6~~~---5~~~------------5--4-------| x3
F#|-8~~~---7~~~----3---5---3--2--3--5-|
B |-6~~~---5~~~----3---5---------3--5-|

Guitar 2: use a wah pedal and a phaser.
          make a swell with your wah pedal.
          use delay on the last note (12th fret on E string)
C#|-------------------------------------------------11------------------------11-------------|
G#|----------------/13~~~~~~~~~11h13~~~~~~~~~~11-13----13~~~~~11/13~~~~~11/13----13-11/13----|
E |-/10~~~~~~~~~~~~-----------------------------------------------------------------------12-|
B |------------------------------------------------------------------------------------------|
F#|------------------------------------------------------------------------------------------|
B |------------------------------------------------------------------------------------------|

End of Break 3.
===============================================
Verse 3:

Guitars 1 and 2:
C#|-------------------------------------------------------------------------|
G#|-------------------------------------------------------------------------|
E |-------------------------------------------------------------------------|
B |-------------------------------------------------------------------------|
F#|---------------------------------------5h6p5---5---------3h5-------------|
B |-5h6p5-0-0-0-0-0-0-1h3p1p0-0-0-0-0-0-0-------6---6-5-3-0-----0-0-0-0-0-0-|
          ...........         ...........       ...........     ...........

==============================================
Guitars 1 and 2:

C#|---------------------------------------------------------------------------|
G#|---------------------------------------------------------------------------|
E |---------------------------------------------------------------------------|
B |---------------------------------------------------------------------------|
F#|---------------------------------------5h6p5---5-8-6-5-6-5h6p5---5---------|
B |-5h6p5-0-0-0-0-0-0-1h3p1p0-0-0-0-0-0-0-------6-----------------6---6-5-3-5-|
          ...........         ...........       ...........       ...........

==============================================
Guitars 1 and 2:
C#|-------------------------------------------------------------------------|
G#|-------------------------------------------------------------------------|
E |-------------------------------------------------------------------------|
B |-------------------------------------------------------------------------|
F#|---------------------------------------5h6p5---5---------3h5-------------|
B |-5h6p5-0-0-0-0-0-0-1h3p1p0-0-0-0-0-0-0-------6---6-5-3-0-----0-0-0-0-0-0-|
          ...........         ...........       ...........     ...........

==============================================
Guitars 1 and 2:
C#|---------------------------------------------------------------------------|
G#|---------------------------------------------------------------------------|
E |---------------------------------------------------------------------------|
B |---------------------------------------------------------------------------|
F#|---------------------------------------5h6p5---5-8-6-5-6-5h6p5---5---------|
B |-5h6p5-0-0-0-0-0-0-1h3p1p0-0-0-0-0-0-0-------6-----------------6---6-5-3-5-|
          ...........         ...........       ...........       ...........

End of Verse 3.
==============================================
Chorus 2:

Guitars 1 and 2:
C#|----------------------------------------------------------------------|
G#|----------------------------------------------------------------------|
E |---------------------------3-2-0--------------------------------------|
B |-7---7--7p5--7~~~--7--7p5--------1--7---7--7p5--7~~~--7--7p5----------|
F#|-5---5--5----5~~~--5--5-------------5---5--5----5~~~--5--5------------|
B |-0---0--0----0~~~--0--0-------------0---0--0----0~~~--0--0----6-5-3-0-|
                                                                 .....

================================================
Guitars 1 and 2:
C#|-------------------------------------------------------------|
G#|-------------------------------------------------------------|
E |-------------------------------------------------------------|
B |-------------------------------------------------------------|
F#|-----------------------------------------------------6-5-3-0-|
B |-1~~~~3-1-0-1~~~~1-1-1-1-3-1-0-3~~~~5-3-0-3~~~~3-5-4---------|


================================================
Guitars 1 and 2:
C#|----------------------------------------------------------------------|
G#|----------------------------------------------------------------------|
E |---------------------------3-2-0--------------------------------------|
B |-7---7--7p5--7~~~--7--7p5--------1--7---7--7p5--7~~~--7--7p5----------|
F#|-5---5--5----5~~~--5--5-------------5---5--5----5~~~--5--5------------|
B |-0---0--0----0~~~--0--0-------------0---0--0----0~~~--0--0----6-5-3-0-|
                                                                 .....

================================================
Guitars 1 and 2:
C#|-------------------------------------------------------------|
G#|-------------------------------------------------------------|
E |-------------------------------------------------------------|
B |-------------------------------------------------------------|
F#|-----------------------------------------------------6-5-3-0-|
B |-1~~~~3-1-0-1~~~~1-1-1-1-3-1-0-3~~~~5-3-0-3~~~~3-5-4---------|

End of Chorus 2.
================================================
Interlude 1:

Guitars 1 and 2:

C#|--------------------------------------------------------------------------------------------|
G#|--------------------------------------------------------------------------------------------|
E |--------------------------------------------------------------------------------------------|
B |--------------------------------------------------------------------------------------------| x2
F#|---------------------------13-13-13-12-12--------------------------------13-13-13-12-12-----|
B |-12-12-12-13-13-13-12-12-12--------------13-13-12-12-12-13-13-13-12-12-12--------------13-13|
    ..........................              ................................              .....

================================================
Guitar 1:
C#|---------------------------------------------------------------------------------------------|
G#|---------------------------------------------------------------------------------------------|
E |---------------------------------------------------------------------------------------------|
B |---------------------------------------------------------------------------------------------| x2
F#|---------------------------13-13-13-12-12--------------------------------13-13-13-12-12------|
B |-12-12-12-13-13-13-12-12-12--------------13-13-12-12-12-13-13-13-12-12-12---------------13-13|
    ..........................              ................................               .....

Guitar 2:
C#|---------------------------------------------------------------------------------------------|
G#|---------------------------------------------------------------------------------------------|
E |---------------------------------------------------------------------------------------------|
B |---------------------------------------------------------------------------------------------| x2
F#|---------------------------17-17-17-16-16--------------------------------17-17-17-16-16------|
B |-16-16-16-17-17-17-16-16-16--------------17-17-16-16-16-17-17-17-16-16-16--------------17-17-|
    ..........................              ................................              .....

End of Interlude 1.
================================================
Guitar Solo:

Guitar 3: have your killswitch on "rhythm."
C#|------------------12~~~~~~~----------12h13p12--15--13-12-13-12~~~~~~----------------------|
G#|-----15~-13----13------------12-13-15--------15-------------------------------------------|
E |-/14--------14-------------14-------------------------------------------------------16p15-|
B |-------------------------------------------------------------------------17p14-14h15------|
F#|--------------------------------------------------------------------14h15-----------------|
B |------------------------------------------------------------------------------------------|

Guitar 3:
C#|------------------12h13h/17p\13-12h13p12--------------------------------------------------|
G#|-13-15-13-12-13-15----------------------15-13-12h13p12--------12h13p12--------------------|
E |------------------------------------------------------14p12p10--------14p12p\9h10-12p10p9-|
B |------------------------------------------------------------------------------------------|
F#|------------------------------------------------------------------------------------------|
B |------------------------------------------------------------------------------------------|

Guitar 3:
C#|---------------------------------------------------------------------------|
G#|---------------------------------------------------------------------------|
E |---------------------------------------------------------------------------|
B |-12p10p9h10-----------------------------------------------------------10~~~|
F#|-----------/14-12-10----14h15p14-\12p10p8-----12h13p12-\10p8p7--------10~~~|
B |---------------------15/-----------------14-15----------------12-10-12-----|

Guitar 3:
C#|-------------------------------------------------------------------------------------|
G#|-----------------------------------------------15-17\15p13h15p13-12h14p12------------|
E |-10~~-9~~~-7--5--/12--10~~~--9~~~16h17p16-17p16--------------------------15-17p15p14-|
B |--x---x----x--x----x---x-----x-------------------------------------------------------|
F#|--8~~-7~~~-5--3--/10---8~~~--7~~~----------------------------------------------------|
B |-------------------------------------------------------------------------------------|

Guitar 3:
C#|--------------------------------------------------------------------------------------|
G#|------------------------------------17h18-17h18p17------------------------------------|
E |----------------------------------17--------------16h17p16----------------------------|
B |-17p15p14h15p14-----------14h15p14------------------------14h15p14--------14h15p14h15-|
F#|---------------15-17p14h15----------------------------------------14h15p14------------|
B |--------------------------------------------------------------------------------------|


Guitar 3:

C#|------------------------------------|
G#|------------------------------------|
E |------------------------------------|
B |------------------------------------|
F#|-12h13p12---------------------------|
B |---------14h15p14\12h13p12\10h11p10-|


Guitars 1 and 2: This is played during the solo.
C#|---------------------------|
G#|---------------------------|
E |---------------------------|
B |-12/17~~-\11~~/15---14\11--| x8
F#|-10/15~~-\-9~~/13---12\-9--|
B |-12/17~~-\11~~/15---14\11--|

End of Guitar Solo.
=====================================================
Chorus 3:

Guitars 1 and 2:
C#|----------------------------------------------------------------------|
G#|----------------------------------------------------------------------|
E |---------------------------3-2-0--------------------------------------|
B |-7---7--7p5--7~~~--7--7p5--------1--7---7--7p5--7~~~--7--7p5----------|
F#|-5---5--5----5~~~--5--5-------------5---5--5----5~~~--5--5------------|
B |-0---0--0----0~~~--0--0-------------0---0--0----0~~~--0--0----6-5-3-0-|
                                                                 .....

================================================
Guitars 1 and 2:
C#|-------------------------------------------------------------|
G#|-------------------------------------------------------------|
E |-------------------------------------------------------------|
B |-------------------------------------------------------------|
F#|-----------------------------------------------------6-5-3-0-|
B |-1~~~~3-1-0-1~~~~1-1-1-1-3-1-0-3~~~~5-3-0-3~~~~3-5-4---------|


================================================
Guitars 1 and 2:
C#|----------------------------------------------------------------------|
G#|----------------------------------------------------------------------|
E |---------------------------3-2-0--------------------------------------|
B |-7---7--7p5--7~~~--7--7p5--------1--7---7--7p5--7~~~--7--7p5----------|
F#|-5---5--5----5~~~--5--5-------------5---5--5----5~~~--5--5------------|
B |-0---0--0----0~~~--0--0-------------0---0--0----0~~~--0--0----6-5-3-0-|
                                                                 .....

================================================
Guitars 1 and 2:
C#|-------------------------------------------------------------|
G#|-------------------------------------------------------------|
E |-------------------------------------------------------------|
B |-------------------------------------------------------------|
F#|-----------------------------------------------------6-5-3-0-|
B |-1~~~~3-1-0-1~~~~1-1-1-1-3-1-0-3~~~~5-3-0-3~~~~3-5-4---------|

================================================
Guitar 1:
C#|----------------------------------------------------------------------|
G#|----------------------------------------------------------------------|
E |---------------------------3-2-0--------------------------------------|
B |-7---7--7p5--7~~~--7--7p5--------1--7---7--7p5--7~~~--7--7p5----------|
F#|-5---5--5----5~~~--5--5-------------5---5--5----5~~~--5--5------------|
B |-0---0--0----0~~~--0--0-------------0---0--0----0~~~--0--0----6-5-3-0-|
                                                                 .....
Guitar 2:
C#|----------------------------------------------------------------------|
G#|----------------------------------------------------------------------|
E |---------------------------7-5----------------------------------------|
B |-7---7--7p5--7~~~--7--7p5------8-7--7---7--7p5--7~~~--7--7p5----------|
F#|-5---5--5----5~~~--5--5-------------5---5--5----5~~~--5--5------------|
B |-0---0--0----0~~~--0--0-------------0---0--0----0~~~--0--0----6-5-3-0-|
                                                                 .......

=================================================
Guitars 1 and 2:
C#|-------------------------------------------------------------|
G#|-------------------------------------------------------------|
E |-------------------------------------------------------------|
B |-------------------------------------------------------------|
F#|-----------------------------------------------------6-5-3-0-|
B |-1~~~~3-1-0-1~~~~1-1-1-1-3-1-0-3~~~~5-3-0-3~~~~3-5-4---------|

=================================================
Guitar 1:
C#|----------------------------------------------------------------------|
G#|----------------------------------------------------------------------|
E |---------------------------3-2-0--------------------------------------|
B |-7---7--7p5--7~~~--7--7p5--------1--7---7--7p5--7~~~--7--7p5----------|
F#|-5---5--5----5~~~--5--5-------------5---5--5----5~~~--5--5------------|
B |-0---0--0----0~~~--0--0-------------0---0--0----0~~~--0--0----6-5-3-0-|
                                                                 .....
Guitar 2:
C#|----------------------------------------------------------------------|
G#|----------------------------------------------------------------------|
E |---------------------------7-5----------------------------------------|
B |-7---7--7p5--7~~~--7--7p5------8-7--7---7--7p5--7~~~--7--7p5----------|
F#|-5---5--5----5~~~--5--5-------------5---5--5----5~~~--5--5------------|
B |-0---0--0----0~~~--0--0-------------0---0--0----0~~~--0--0----6-5-3-0-|
                                                                 .......
=================================================
Guitars 1 and 2:
C#|-------------------------------------------------------------|
G#|-------------------------------------------------------------|
E |-------------------------------------------------------------|
B |-------------------------------------------------------------|
F#|-----------------------------------------------------6-5-3-0-|
B |-1~~~~3-1-0-1~~~~1-1-1-1-3-1-0-3~~~~5-3-0-3~~~~3-5-4---------|

End of Chorus 3.
=================================================
Interlude 2:

Guitar 1:
C#|---------------------------------------------------------------------------------------------|
G#|---------------------------------------------------------------------------------------------|
E |---------------------------------------------------------------------------------------------|
B |---------------------------------------------------------------------------------------------| x2
F#|---------------------------13-13-13-12-12--------------------------------13-13-13-12-12------|
B |-12-12-12-13-13-13-12-12-12--------------13-13-12-12-12-13-13-13-12-12-12---------------13-13|
    ..........................              ................................               .....

Guitar 2:
C#|---------------------------------------------------------------------------------------------|
G#|---------------------------------------------------------------------------------------------|
E |---------------------------------------------------------------------------------------------|
B |---------------------------------------------------------------------------------------------| x2
F#|---------------------------17-17-17-16-16--------------------------------17-17-17-16-16------|
B |-16-16-16-17-17-17-16-16-16--------------17-17-16-16-16-17-17-17-16-16-16--------------17-17-|
    ..........................              ................................              .....

End of Interlude 2.
=================================================
Outro:

Guitars 1 and 2:
C#|------------------------------------------------------------------|
G#|------------------------------------------------------------------|
E |-2~~~--3~~~~--2~~~-------------3--2~~~--3~~~--2~~~~--3---3------3-|
B |-0~~~--1~~~~--0~~~--6---6--5---1--0~~~--1~~~--0~~~~--3---3--6---1-| x5
F#|-0~~~--1~~~~--0~~~--6---6--5---1--0~~~--1~~~--0~~~~--1---1--6---1-|
B |-0~~~--1~~~~--0~~~--6---6--5---1--0~~~--1~~~--0~~~~---------6---1-|

=================================================
Guitars 1 and 2:

C#|-----------------------------------------------------------------------------|
G#|-----------------------------------------------------------------------------|
E |-2~~~--3~~~~--2~~~-------------3--2~~~--3--2~~~------------3--2~~~-3~~~-2~~~-|
B |-0~~~--1~~~~--0~~~--6---6--5---1--0~~~--1--0~~~------------1--0~~~-1~~~-0~~~-|
F#|-0~~~--1~~~~--0~~~--6---6--5---1--0~~~--1--0~~~-8-8-8-6-6--1--0~~~-1~~~-0~~~-|
B |-0~~~--1~~~~--0~~~--6---6--5---1--0~~~--1--0~~~-8-8-8-6-6--1--0~~~-1~~~-0~~~-|

=================================================
Guitars 1 and 2:
C#|-------------|
G#|-------------|
E |-----------3-|
B |-6---6--5--1-|
F#|-6---6--5--1-|
B |-6---6--5--1-|

=================================================
Guitars 1 and 2:
C#|------------------------------------------------------------------|
G#|------------------------------------------------------------------|
E |-2~~~--3~~~~--2~~~-------------3--2~~~--3~~~--2~~~~--3---3------3-|
B |-0~~~--1~~~~--0~~~--6---6--5---1--0~~~--1~~~--0~~~~--3---3--6---1-| x1
F#|-0~~~--1~~~~--0~~~--6---6--5---1--0~~~--1~~~--0~~~~--1---1--6---1-|
B |-0~~~--1~~~~--0~~~--6---6--5---1--0~~~--1~~~--0~~~~---------6---1-|

Please Rate and Comment My Tab.
Thanks.

[travis]

END
=====================================================================================
=====================================================================================
-------------------------------------------------------------------------------
			 "Psychosocial" --- Slipknot
-------------------------------------------------------------------------------

Tabbed by: [travis]


Tuning: A E A D F# B (low to high)

Key: F Major (F G A Bb C D E)
     Eb Major (Eb F G Ab Bb C D) [During Pre-Chorus and Jim's Solo]


*1st Solo (Mick): Use a whammy pedal towards the end.
*2nd Solo (Jim): Have your killswitch on "rhythm."

*I think that Mick uses a Whammy Pedal during the end of his solo.


Legend:

... = palm muted
h = hammer on
p = pull off
b = bend
__ = hold bend
" = tremelo pick
* = pinch harmonic
x = muffled string
/ = slide up
\ = slide down
// = gradually slide up
\\ = gradually slide down
~ = vibrato
() = note not picked / bent note brought back to normal note
1 = whole step bend
.5 = half step bend
1.5 = whole step and a half step bend
2 = two steps bend
! = "Whammy Pedal"
h/ = pick once
p\ = pick once
h/p\ = pick once
p\h/ = pick once


======================================
Intro:

Guitars 1 and 2: Volume swell (Fade in):

B |----------|
F#|----------|
D |----------|
A |----------|
E |-2~~~~~~~-|
A |-2~~~~~~~-|

======================================
Guitar 1:
B |-------------------------------------------------|
F#|-------------------------------------------------|
D |-------------------------------------------------|
A |-------------------------------------------------|
E |-------------------------------------------------|
A |-0-0--600-5*~~~~-0-3h5-000000500-6*~~~~-0-3h4----|
    ........        .     .........        .

Guitar 2:
B |-------------------------------------------------|
F#|-------------------------------------------------|
D |-------------------------------------------------|
A |-------------------------------------------------|
E |-0--------------------------------------0--------|
A |-0--------------------------------------0-3h4----|
    .                                      .

======================================
Guitar 1: Those are 1s and 2s.
B |-----------------------------------------------------|
F#|-----------------------------------------------------|
D |-----------------------------------------------------|
A |----------------------1111222244443333---------6*~~~-|
E |-----------------------------------------------------|
A |-0-500-6*~~~~-0-3h4-00-----------------0-0-555-------|
    .....        .     ..........................

Guitar 2:
B |-----------------------------------------------------|
F#|-----------------------------------------------------|
D |-----------------------------------------------------|
A |-----------------------------------------------------|
E |-----------------------------------------------------|
A |-0-500-6*~~~~-0-3h4-005555666688887777-0-0-500-6*~~~-|
    .....        .     ..........................

======================================
Guitar 1:
B |----------------------------------------------------|
F#|----------------------------------------------------|
D |----------------------------------------------------|
A |-----------------6*~~~~----------------6*~~~~-------|
E |-0-3h4------------------0-3h4-----------------0-3h4-|
A |-0-3h4-000000500--------0-3h4----0-555--------0-3h4-|
    .     .........        .        .....        .

Guitar 2:
B |----------------------------------------------------|
F#|----------------------------------------------------|
D |----------------------------------------------------|
A |----------------------------------------------------|
E |-0-3h4------------------0-3h4-----------------0-3h4-|
A |-0-3h4-000000500-6*~~~~-0-3h4----0-500-6*~~~~-0-3h4-|
    .     .........        .        .....        .

=======================================
Guitar 1: Those are 1s and 2s.
B |---------------------------------------------------------------------|
F#|---------------------------------------------------------------------|
D |---------------------------------------------------------------------|
A |---1111222244443333111122224444333311112222444433331111-2-4-3~~~-----|
E |----------------------------------------------------------------12p\-|
A |-00-------------------------------------------------------------12p\-|
    ..................................................

Guitar 2:
B |---------------------------------------------------------------------|
F#|---------------------------------------------------------------------|
D |---------------------------------------------------------------------|
A |---------------------------------------------------------------------|
E |----------------------------------------------------------------12p\-|
A |-005555666688887777555566668888777755556666888877775555-6-8-6~~~12p\-|
    ..................................................

========================================
Guitars 1 and 2:
B |-----------------------------------------------------------------|
F#|-----------------------------------------------------------------|
D |-----------------------------------------------------------------|
A |-6-----5-----5h6-6-----5-----5h6-6-----5-----5h6-----------------| x2
E |-6-0-0-5-0-0-5h6-6-0-0-5-0-0-5h6-6-0-0-5-0-0-5h6-6-5-3-0-3-5-3-2-|
A |-6-0-0-5-0-0-5h6-6-0-0-5-0-0-5h6-6-0-0-5-0-0-5h6-6-5-3-0-3-5-3-2-|
      ...   ...       ...   ...       ...   ...     ...............

=========================================
Verse 1:

Guitars 1 and 2:
B |-------------------------------------------------------------|
F#|-------------------------------------------------------------|
D |-------------------------------------------------------------|
A |-6p5-----5h6-6-----5-----5h6-6-----5-----5h6-----------------|
E |-6p5-0-0-5h6-6-0-0-5-0-0-5h6-6-0-0-5-0-0-5h6-6-5-3-0-3-5-3-2-|
A |-6p5-0-0-5h6-6-0-0-5-0-0-5h6-6-0-0-5-0-0-5h6-6-5-3-0-3-5-3-2-|
        ...       ...   ...       ...   ...     ...............

=========================================
Guitars 1 and 2:
B |-----------------------------------------------------------------|
F#|-----------------------------------------------------------------|
D |-----------------------------------------------------------------|
A |-6-----5-----5h6-6-----5-----5h6-6-----5-----5h6-----------------| x3
E |-6-0-0-5-0-0-5h6-6-0-0-5-0-0-5h6-6-0-0-5-0-0-5h6-6-5-3-0-3-5-3-2-|
A |-6-0-0-5-0-0-5h6-6-0-0-5-0-0-5h6-6-0-0-5-0-0-5h6-6-5-3-0-3-5-3-2-|
      ...   ...       ...   ...       ...   ...     ...............

End of Verse 1
=========================================
Pre Chorus 1:

Guitar 1:
B |---------------------------------------------------------------|
F#|---------------------------------------------------------------|
D |-8-8-8-8-8-8---3-3-3---3-3-3---7-7-------------5-5-5---8-8-8---|
A |-6-6-6-6-6-6---1-1-1---3-3-3---5-5-------------5-5-5-x-8-8-8---|
E |-6-6-6-6-6-6-0-1-1-1-0-1-1-1-0-5-5-5-5-5-5-5-5-3-3-3-x-6-6-6-0-|
A |-6-6-6-6-6-6-0-1-1-1-0-------0-5-5-5-5-5-5-5-5---------------0-|
                                      ...........

Guitar 2:
B |---------------------------------------------------------------|
F#|---------------------------------------------------------------|
D |-----------------------3-3-3-------------------5-5-5---8-8-8---|
A |-6-6-6-6-6-6---1-1-1---3-3-3---5-5-------------5-5-5-x-8-8-8---|
E |-6-6-6-6-6-6-0-1-1-1-0-1-1-1-0-5-5-5-5-5-5-5-5-3-3-3-x-6-6-6-0-|
A |-6-6-6-6-6-6-0-1-1-1-0-------0-5-5-5-5-5-5-5-5---------------0-|
                                      ...........

=========================================
Guitar 1:
B |---------------------------------------------------------------|
F#|---------------------------------------------------------------|
D |-8-8-8-8-8-8-8---3-3-3---3-3-3---7-7---------------------------|
A |-6-6-6-6-6-6-6---1-1-1---3-3-3---5-5---------------5-------5h6-|
E |-6-6-6-6-6-6-6-0-1-1-1-0-1-1-1-0-5-5-5-5-5-5-0-3-6-5-----0-5h6-|
A |-6-6-6-6-6-6-6-0-1-1-1-0-------0-5-5-5-5-5-5-0-3-6-5-----0-5h6-|
                                        .............       .

Guitar 2:


B |---------------------------------------------------------------|
F#|---------------------------------------------------------------|
D |-------------------------3-3-3---------------------------------|
A |-6-6-6-6-6-6-6---1-1-1---3-3-3---5-5---------------5-------5h6-|
E |-6-6-6-6-6-6-6-0-1-1-1-0-1-1-1-0-5-5-5-5-5-5-0-3-6-5-----0-5h6-|
A |-6-6-6-6-6-6-6-0-1-1-1-0-------0-5-5-5-5-5-5-0-3-6-5-----0-5h6-|
                                        .............       .

End of Pre Chorus 1.
========================================
Chorus 1:

Guitars 1 and 2:
B |-----------------------------------------------------------------|
F#|-----------------------------------------------------------------|
D |-----------------------------------------------------------------|
A |-6-----5-----5h6-6-----5-----5h6-6-----5-----5h6-----------------| x2
E |-6-0-0-5-0-0-5h6-6-0-0-5-0-0-5h6-6-0-0-5-0-0-5h6-6-5-3-0-3-5-3-2-|
A |-6-0-0-5-0-0-5h6-6-0-0-5-0-0-5h6-6-0-0-5-0-0-5h6-6-5-3-0-3-5-3-2-|
      ...   ...       ...   ...       ...   ...     ...............

=========================================
Verse 2:

Guitars 1 and 2:
B |-------------------------------------------------------------|
F#|-------------------------------------------------------------|
D |-------------------------------------------------------------|
A |-6p5-----5h6-6-----5-----5h6-6-----5-----5h6-----------------|
E |-6p5-0-0-5h6-6-0-0-5-0-0-5h6-6-0-0-5-0-0-5h6-6-5-3-0-3-5-3-2-|
A |-6p5-0-0-5h6-6-0-0-5-0-0-5h6-6-0-0-5-0-0-5h6-6-5-3-0-3-5-3-2-|
        ...       ...   ...       ...   ...     ...............

=========================================
Guitars 1 and 2:
B |-----------------------------------------------------------------|
F#|-----------------------------------------------------------------|
D |-----------------------------------------------------------------|
A |-6-----5-----5h6-6-----5-----5h6-6-----5-----5h6-----------------| x3
E |-6-0-0-5-0-0-5h6-6-0-0-5-0-0-5h6-6-0-0-5-0-0-5h6-6-5-3-0-3-5-3-2-|
A |-6-0-0-5-0-0-5h6-6-0-0-5-0-0-5h6-6-0-0-5-0-0-5h6-6-5-3-0-3-5-3-2-|
      ...   ...       ...   ...       ...   ...     ...............

End of Verse 2.
==========================================
Pre Chorus 2:

Guitar 1:
B |---------------------------------------------------------------|
F#|---------------------------------------------------------------|
D |-8-8-8-8-8-8---3-3-3---3-3-3---7-7-------------5-5-5---8-8-8---|
A |-6-6-6-6-6-6---1-1-1---3-3-3---5-5-------------5-5-5-x-8-8-8---|
E |-6-6-6-6-6-6-0-1-1-1-0-1-1-1-0-5-5-5-5-5-5-5-5-3-3-3-x-6-6-6-0-|
A |-6-6-6-6-6-6-0-1-1-1-0-------0-5-5-5-5-5-5-5-5---------------0-|
                                      ...........

Guitar 2:
B |---------------------------------------------------------------|
F#|---------------------------------------------------------------|
D |-----------------------3-3-3-------------------5-5-5---8-8-8---|
A |-6-6-6-6-6-6---1-1-1---3-3-3---5-5-------------5-5-5-x-8-8-8---|
E |-6-6-6-6-6-6-0-1-1-1-0-1-1-1-0-5-5-5-5-5-5-5-5-3-3-3-x-6-6-6-0-|
A |-6-6-6-6-6-6-0-1-1-1-0-------0-5-5-5-5-5-5-5-5---------------0-|
                                      ...........

=========================================
Guitar 1:
B |---------------------------------------------------------------|
F#|---------------------------------------------------------------|
D |-8-8-8-8-8-8-8---3-3-3---3-3-3---7-7---------------------------|
A |-6-6-6-6-6-6-6---1-1-1---3-3-3---5-5---------------5-------3h6-|
E |-6-6-6-6-6-6-6-0-1-1-1-0-1-1-1-0-5-5-5-5-5-5-0-3-6-5-----0-3h6-|
A |-6-6-6-6-6-6-6-0-1-1-1-0-------0-5-5-5-5-5-5-0-3-6-5-----0-3h6-|
                                        .............       .


Guitar 2:
B |---------------------------------------------------------------|
F#|---------------------------------------------------------------|
D |-------------------------3-3-3---------------------------------|
A |-6-6-6-6-6-6-6---1-1-1---3-3-3---5-5---------------5-------3h6-|
E |-6-6-6-6-6-6-6-0-1-1-1-0-1-1-1-0-5-5-5-5-5-5-0-3-6-5-----0-3h6-|
A |-6-6-6-6-6-6-6-0-1-1-1-0-------0-5-5-5-5-5-5-0-3-6-5-----0-3h6-|
                                        .............       .

End of Pre Chorus 2.
=========================================
Mick's Solo:

Guitar 2: This is played over all of Micks Solo.
B |-----------------------------------------------------------------|
F#|-----------------------------------------------------------------|
D |-----------------------------------------------------------------|
A |-6-----5-----5h6-6-----5-----5h6-6-----5-----5h6-6-----5-----5h6-| x2
E |-6-0-0-5-0-0-5h6-6-0-0-5-0-0-5h6-6-0-0-5-0-0-5h6-6-0-0-5-0-0-5h6-|
A |-6-0-0-5-0-0-5h6-6-0-0-5-0-0-5h6-6-0-0-5-0-0-5h6-6-0-0-5-0-0-5h6-|
      ...   ...       ...   ...       ...   ...       ...   ...


Guitar 1:
B |-----------------------------------------------------------------------------------------|
F#|-----------------------------------------------------------------------------------------|
D |--------------------------------------------------7-8-10------7-8-10-12p10p8-------------|
A |-----------------10p8p6-------------5h7h8-8-7-8-10------7-8-10--------------12p10p8------|
E |---------10-11-13------10p8p6p\5-7-8-----------------------------------------------12-15-|
A |-12-14-15--------------------------------------------------------------------------------|
    ................              ...................                                 .....

Guitar 1 Continued:
B |----------------------------------------------------------------------------------------------|
F#|--------------------------------13-----------------13-----------------------------------------|
D |------------------------12-13-15----------12-13-15---15-13\12p10p8-----------12-14-15---------|
A |-12-13-15-15-13-12-13-15----------12-13-15------------------------12-13-15-15--------13-15-17-|
E |----------------------------------------------------------------------------------------------|
A |----------------------------------------------------------------------------------------------|
    ..............                   ................                ............

Guitar 1 Continued:
B |---------------------------------------------------------------------------17-------------------|
F#|----------------------------------------18-16-15-------------------16-15-15--15~~~16p15p13-15~~~|
D |----------------15-17-19--------17-19-20---------17-15--------15-17-----------------------------|
A |-15-13--15-17-18--------17-18-20----------------------18-17-18----------------------------------|
E |------17----------------------------------------------------------------------------------------|
A |------------------------------------------------------------------------------------------------|


Guitar 1 Continued:
               2                1___      !!!!!!!
B |-----------------------------------------------------------------------|
F#|-16p15p13-16b--16-15-13-15-15b---(15)----------------------------------|
D |---------------------------------------12------------------------------|
A |--------------------------------------------12---13-12-10-------12~~~~~|
E |----------------------------------------------------------13-11--------|
A |-----------------------------------------------------------------------|

Guitar 4:
                                          !!!!!!!
B |---------------------------------------15------------------------------|
F#|--------------------------------------------15-------------------------|
D |-----------------------------------------------------------------------|
A |-----------------------------------------------------------------------|
E |-----------------------------------------------------------------------|
A |-----------------------------------------------------------------------|

End of Mick's Solo.
======================================
Jim's Solo:

Guitar 2:

B |---------------------------------------------------------------------------------|
F#|-10-12-/18-16-15-16~~~15h16p16----15-16h/20p\16-15-16-15h16p15----15-16-15~~~~~~-|
D |-------------------------------15------------------------------17----------------|
A |---------------------------------------------------------------------------------|
E |---------------------------------------------------------------------------------|
A |---------------------------------------------------------------------------------|

Guitar 2:
B |------------------------------------------------------------------------------------|
F#|------------------------------------------------------------------------------------|
D |------------------------------------------------------------------------------------|
A |-12-10-12~~~-15-12-13p12h13p12h13p12h13---------------------------------------------|
E |----------------------------------------8h10h11/13p11p10h11h13/15h17h18-17p15h17h18-|
A |------------------------------------------------------------------------------------|

Guitar 2:
B |----------------------------------------------------------------------------------|
F#|----------------------------------------------------------------------------------|
D |----------------------------------------------------------------------------------|
A |-15h17p15--15h17h/19-17-15h17p15--------15h18p15--15------------------------------|
E |---------18---------------------18p17h18--------18--18p17p15\13-15-12\10p8-10~~~~~|
A |----------------------------------------------------------------------------------|

Guitar 2:
B |----------------------------------------------------------|
F#|----------------------------------------------------------|
D |-12-12----------------------------------------------------|
A |-------13-13-12h13p12----12-------------------------------|
E |----------------------15----13h15p13-12-13-12-------------|
A |----------------------------------------------13-12-10h12-|

Guitar 1: This is played over Jim's solo.
B |-------------------------------------------------------------------------------------|
F#|-------------------------------------------------------------------------------------|
D |---------------3-3-3---3-3-3---7-7-------------5-5-5---8-8-8---8-8-------------3-3-3-|
A |---------------1-1-1---3-3-3-3-5-5-------------5-5-5-x-8-8-8---6-6-------------1-1-1-|
E |-6-6-6-6-6-6-0-1-1-1-1-1-1-1-1-5-5-5-5-5-5-5-5-3-3-3-x-6-6-6-0-6-6-6-6-6-6-6-0-1-1-1-|
A |-6-6-6-6-6-6-0-1-1-1-1---------5-5-5-5-5-5-5-5---------------0-6-6-6-6-6-6-6-0-1-1-1-|
    .............       .       .     ...........               .     ...........

Guitar 1 Continued:
B |---------------------------------------------|
F#|---------------------------------------------|
D |---3-3-3---7-7-------------------------------|
A |---3-3-3-3-5-5-------------------------------|
E |-1-1-1-1-1-5-5-5-5-5-5-5-5-5-5-5-5-5-5-5-5-5-|
A |-1---------5-5-5-5-5-5-5-5-5-5-5-5-5-5-5-5-5-|
    .       .     .............................

End of Jim's Solo.
========================================================
Interlude:

Guitar 1:
B |--------------------------------------------------------|
F#|--------------------------------------------------------|
D |--------------------------------------------------------|
A |--------------------------------------------------------|
E |--------------------------------------------------------|
A |-00----00--00---00-00--0000---00---00--00---00-00--0000-|

========================================================
Guitars 1 and 2:
B |---------------------------------------------------------------|
F#|---------------------------------------------------------------|
D |---------------------------------------------------------------|
A |---------------------------------------------------------------|
E |---------------------------------------------------------------|
A |-00----00--00---00-00--0000---00-----00---00---00-00---1h/18p\-|

========================================================
Guitars 1 and 2:


B |---------------------------------|
F#|---------------------------------|
D |---------------------------------|
A |---------------------------------| x4
E |-00-----00--00----00-00---0000---|
A |-00-----00--00----00-00---0000---|
    .............................

========================================================
Guitars 1 and 2:
B |------------------------------------------------------------------------------------------------|
F#|------------------------------------------------------------------------------------------------|
D |------------------------------------------------------------------------------------------------|
A |------------------------------------------------------------------------------------------------|
E |-00--------00--00---00-00---0005---------00--00---00-00--0004--------00--00---00-00--0004-------|
A |-00--6p\\3-00--00---00-00---0005-5p\\\2--00--00---00-00--0004-4p\\2--00--00---00-00--0004-4p\\2-|
    ..        .....................         ....................        ....................


========================================================
Guitars 1 and 2:
B |--------------------------------------|
F#|--------------------------------------|
D |--------------------------------------|
A |--------------------------------------|
E |-00---------00---00----00-00----0-2-3-|
A |-00--6p\\3--00---00----00-00----0-2-3-|
    ..         .........................

End of Interlude.
========================================================
Verse 3:

Guitars 1 and 2:
B |-----------------------------------------------------------------|
F#|-----------------------------------------------------------------|
D |-----------------------------------------------------------------|
A |-6-----5-----5h6-6-----5-----5h6-6-----5-----5h6-----------------| x2
E |-6-0-0-5-0-0-5h6-6-0-0-5-0-0-5h6-6-0-0-5-0-0-5h6-6-5-3-0-3-5-3-2-|
A |-6-0-0-5-0-0-5h6-6-0-0-5-0-0-5h6-6-0-0-5-0-0-5h6-6-5-3-0-3-5-3-2-|
      ...   ...       ...   ...       ...   ...     ...............

End of Verse 3.
=========================================================
Pre Chorus 3:

Guitar 1:
B |-----------------------------------------------------------------------------|
F#|-----------------------------------------------------------------------------|
D |-8-8-8-8-8-8---3-3-3---3-3-3---7-7-7-7-7-7-7---5-5-5---8-8-8---8-8-8-8-8-8-8-|
A |-6-6-6-6-6-6---1-1-1---3-3-3---5-5-5-5-5-5-5---5-5-5---8-8-8---6-6-6-6-6-6-6-|
E |-6-6-6-6-6-6-0-1-1-1-0-1-1-1-0-5-5-5-5-5-5-5-0-3-3-3-0-6-6-6-0-6-6-6-6-6-6-6-|
A |-6-6-6-6-6-6-0-1-1-1-0-------0-5-5-5-5-5-5-5-0-------0-------0-6-6-6-6-6-6-6-|
                                                .       .       .

Guitar 2:
B |-----------------------------------------------------------------------------|
F#|-----------------------------------------------------------------------------|
D |-----------------------3-3-3-------------------5-5-5---8-8-8-----------------|
A |-6-6-6-6-6-6---1-1-1---3-3-3---5-5-5-5-5-5-5---5-5-5---8-8-8---6-6-6-6-6-6-6-|
E |-6-6-6-6-6-6-0-1-1-1-0-1-1-1-0-5-5-5-5-5-5-5-0-3-3-3-0-6-6-6-0-6-6-6-6-6-6-6-|
A |-6-6-6-6-6-6-0-1-1-1-0-------0-5-5-5-5-5-5-5-0-------0-------0-6-6-6-6-6-6-6-|
                                                .       .       .

==========================================================
Guitar 1:
B |-------------------------------------------------------------------------|
F#|-------------------------------------------------------------------------|
D |---3-3-3---3-3-3---7-7-7-7-7-7-7---5-5-5---8-8-8---8-8-8-8-8-8-8---3-3-3-|
A |---1-1-1---3-3-3---5-5-5-5-5-5-5---5-5-5---8-8-8---6-6-6-6-6-6-6---1-1-1-|
E |-0-1-1-1-0-1-1-1-0-5-5-5-5-5-5-5-0-3-3-3-0-6-6-6-0-6-6-6-6-6-6-6-0-1-1-1-|
A |-0-1-1-1-0-------0-5-5-5-5-5-5-5-0-------0-------0-6-6-6-6-6-6-6-0-1-1-1-|
                                    .       .       .

Guitar 2:

B |-------------------------------------------------------------------------|
F#|-------------------------------------------------------------------------|
D |-----------3-3-3-------------------5-5-5---8-8-8-------------------------|
A |---1-1-1---3-3-3---5-5-5-5-5-5-5---5-5-5---8-8-8---6-6-6-6-6-6-6---1-1-1-|
E |-0-1-1-1-0-1-1-1-0-5-5-5-5-5-5-5-0-3-3-3-0-6-6-6-0-6-6-6-6-6-6-6-0-1-1-1-|
A |-0-1-1-1-0-------0-5-5-5-5-5-5-5-0-------0-------0-6-6-6-6-6-6-6-0-1-1-1-|
                                    .       .       .

===========================================================
Guitar 1:
B |---------------------------------------------------------------------------|
F#|---------------------------------------------------------------------------|
D |---3-3-3---7-7-7-7-7-7-7---5-5-5---8-8-8---8-8-8-8-8-8-8---3-3-3---3-3-3---|
A |---3-3-3---5-5-5-5-5-5-5---5-5-5---8-8-8---6-6-6-6-6-6-6---1-1-1---3-3-3---|
E |-0-1-1-1-0-5-5-5-5-5-5-5-0-3-3-3-0-6-6-6-0-6-6-6-6-6-6-6-0-1-1-1-0-1-1-1-0-|
A |-0-------0-5-5-5-5-5-5-5-0-------0-------0-6-6-6-6-6-6-6-0-1-1-1-0-------0-|
                            .       .       .

Guitar 2:
B |---------------------------------------------------------------------------|
F#|---------------------------------------------------------------------------|
D |---3-3-3-------------------5-5-5---8-8-8---------------------------3-3-3---|
A |---3-3-3---5-5-5-5-5-5-5---5-5-5---8-8-8---6-6-6-6-6-6-6---1-1-1---3-3-3---|
E |-0-1-1-1-0-5-5-5-5-5-5-5-0-3-3-3-0-6-6-6-0-6-6-6-6-6-6-6-0-1-1-1-0-1-1-1-0-|
A |-0-------0-5-5-5-5-5-5-5-0-------0-------0-6-6-6-6-6-6-6-0-1-1-1-0-------0-|
                            .       .       .

===========================================================
Guitar 1:
B |---------------------------------------|
F#|---------------------------------------|
D |-7-7-----------------------------------|
A |-5-5-----------------------------------|
E |-5-5-5-5-5-5-5-5-5-5-5-5-5-5-5-5-------|
A |-5-5-5-5-5-5-5-5-5-5-5-5-5-5-5-5-/15p\-|
        ...........................

Guitar 2:
B |-----------------------------------------------|
F#|-----------------------------------------------|
D |-7-7/12-12-10-10-10/15-15/17-17/19-19-19-19-19-|
A |-x-x--x--x--x--x--x--x--x--x--x--x--x--x--x--x-|
E |-5-5/10-10--8--8--8/13-13/15-15/17-17-17-17-17-|
A |-----------------------------------------------|

End of Pre Chorus 3.
===========================================================
Outro:

Guitar 1:
B |------------------------------------------------------------------------------------|
F#|------------------------------------------------------------------------------------|
D |------------------------------------------------------------------------------------|
A |-------------12-12-------------9-9-----8-8-------------12-12-------------9-9--------| x3
E |-------12-12-------------10-10-----9-9-----------10-10-------------10-10------------|
A |-12-12-------------12-12-------------------12-12-------------12-12-----------12*~~~~|
    ...........................................................................

Guitar 2:
B |-------------------------------------------------------------------------------------------|
F#|-------------------------------------------------------------------------------------------|
D |-------------------------------------------------------------------------------------------|
A |-------------------------------------------------------------------------------------------| x3
E |-------------12-12-------------------------------------------12-12-------------------------|
A |-12-12-15-15-------12-12-13-13-16-16-12-12-15-15-12-12-15-15-------12-12-13-13-16-16-12*~~~|
    ...................................................................................

Guitar 3: use a wah pedal and slowly do a swell with it, while tremelo picking.
B |-----|
F#|-----|
D |-----|
A |-----| x3
E |-----|
A |-0"--|


=============================================================
Guitar 1:
B |------------------------------------------------------------------------------------|
F#|------------------------------------------------------------------------------------|
D |------------------------------------------------------------------------------------|
A |-------------12-12-------------9-9-----8-8-------------12-12-------------9-9--------| x1
E |-------12-12-------------10-10-----9-9-----------12-12-------------10-10------------|
A |-12-12-------------12-12-------------------12-12-------------12-12-----------12*~~~~|
    ...........................................................................

Guitar 2:
B |--------------------------------------------------------------------------------------------|
F#|--------------------------------------------------------------------------------------------|
D |--------------------------------------------------------------------------------------------|
A |--------------------------------------------------------------------------------------------| x1
E |-------------12-12-------------------------------------------12-12--------------------------|
A |-12-12-15-15-------12-12-13-13-16-16-12-12-15-15-12-12-15-15-------12-12-13-13-16-16-12*~~~~|
    ...................................................................................


Guitar 3: use a wah pedal and slowly do a swell with it, while tremelo picking.
B |-----|
F#|-----|
D |-----|
A |-----| x1
E |-----|
A |-0"--|

===============================================================
Guitars 1 and 2:
B |----------------------------------------------------------------------------|
F#|----------------------------------------------------------------------------|
D |----------------------------------------------------------------------------|
A |-------------------------------------3p\\2----------------------------------|
E |-00---00------00--00----00-00---000--3p\\2--00---00----00--00----00-00--000-|
A |-00---00------00--00----00-00---000--3p\\2--00---00----00--00----00-00--000-|
    ..................................         ...............................

================================================================
Guitars 1 and 2:
B |----------------------------------------------------------------------------|
F#|----------------------------------------------------------------------------|
D |----------------------------------------------------------------------------|
A |-3p\\2----------------------------------3p\\2-------------------------------|
E |-3p\\2--00--00----00--00----00-00--000--3p\\2--00---00---00--00----00-00----|
A |-3p\\2--00--00----00--00----00-00--000--3p\\2--00---00---00--00----00-00----|
           ..............................         .........................


Please Rate and Commment My Tab.
Thanks.

[travis]

END
======================================================================================
======================================================================================
-------------------------------------------------------------------------------
			     "Dead Memories" --- Slipknot
-------------------------------------------------------------------------------



                          Tabbed by: [travis]




Tuning: B F# B E G# C# (low to high)



Key: C Major [C D E F G A B]



Legend:

... = palm mute
h = hammer on
p = pull off
b = bend
~ = vibrato
__ = hold bend
* = pinch harmonic
1 = whole step bend
.5 = half step bend
.25 = quarter step bend
1.5 = whole step and a half bend
2 = two step bend
/ = slide up
\ = slide down
! = feedback
[] = trill (repeatedly hammer on/pull off for a number of times)
pb = pre bend
h/ = pick once
p\ = pick once
h/p\ = pick once
p\h/ = pick once
() = note not picked / bent note back to normal



=====================================================
Intro:

Guitar 1:
C#|-----------------------------------------------------------------|
G#|-----------------------------------------------------------------|
E |-----------------------------------------------------------------|
B |-----8-----8---------8-----8---8-----8-----8---------8-----8---8-|
F#|---5-----5-----5---5-----5---------5-----5-----5---5-----5-------|
B |-5-----8-----6---5-----5-----5---5-----8-----6---5-----5-----5---|


====================================================
Guitar 1:
C#|---------------------------------|
G#|---------------------------------|
E |---------------------------------|
B |-----8-----8---------8-----8---8-|
F#|---5-----5-----5---5-----5-------|
B |-5-----6-----8---5-----5-----5---|


Guitar 2:
C#|---------------------------------|
G#|---------------------------------|
E |---------------------------------|
B |---------------------------------|
F#|-----------------------------15p\|
B |-----------------------------15p\|

====================================================
Guitars 1 and 2:
C#|----------------------------------|
G#|----------------------------------|
E |----------------------------------|
B |-5~~~~\8~~~~6~~~~-----------------|
F#|-5~~~~\8~~~~6~~~~-5-5-5-5-5-5-5-5-|
B |-5~~~~\8~~~~6~~~~-5-5-5-5-5-5-5-5-|
                     ...............

Guitar 3:
C#|------------------------------------------|
G#|------------------------------------------|
E |-7~~~~10~~~8~~~7h/14--14p\12--12p\7--7p\5-|
B |-x~~~~-x~~~x~~~x---x---x-------x--x--x--x-|
F#|-5~~~~-8~~~6~~~5h/12--12p\10--10p\5--5p\3-|
B |------------------------------------------|

====================================================
Guitars 1 and 2:
C#|-----------------------------------------------------------------|
G#|-----------------------------------------------------------------|
E |-----------------------------------------------------------------|
B |-----8-----8---------8-----8---8-----8-----8---------8-----8---8-|
F#|---5-----5-----5---5-----5---------5-----5-----5---5-----5-------|
B |-5-----8-----6---5-----5-----5---5-----8-----6---5-----5-----5---|

Guitar 3:
C#|-----------------------------------|
G#|-----------------------------------|
E |-7~~~~~~~~~~~~~~~~~~~~~~~~~~~~~~~~~|
B |-x---------------------------------|
F#|-5~~~~~~~~~~~~~~~~~~~~~~~~~~~~~~~~~|
B |-----------------------------------|

====================================================
Guitars 1 and 2:
C#|-------------------------------------------------|
G#|-------------------------------------------------|
E |-------------------------------------------------|
B |-----8-----8---------8-----8---8-----8-----8-----|
F#|---5-----5-----5---5-----5---------5-----5-----5-|
B |-5-----6-----8---5-----5-----5---5-----8-----6---|

====================================================
Guitars 1 and 2:
C#|---------------------------------|
G#|---------------------------------|
E |---------------------------------|
B |---------------------------------|
F#|-5-5-5-5-5-5-5-5-5-5-5-5-5-5-5-5-|
B |-5-5-5-5-5-5-5-5-5-5-5-5-5-5-5-5-|
    ...............................

End of Intro.
====================================================
Verse 1:

Guitars 1 and 2:
C#|-----------------------------------------------------------------------|
G#|-----------------------------------------------------------------------|
E |-----------------------------------------------------------------------|
B |-----8-----8---------8*-----8*---8*-----8-----8---------8*-----8*---8*-|
F#|---5-----5-----5---5------5-----------5-----5-----5---5------5---------|
B |-5-----8-----6---5------5------5----5-----8-----6---5------5------5----|
    ...................    ...    .    ...................    ...    .

====================================================
Guitars 1 and 2:
C#|-----------------------------------------------------------------------|
G#|-----------------------------------------------------------------------|
E |-----------------------------------------------------------------------|
B |-----8-----8---8-----8*-----8*---8*-----8-----8---------8*-----8*---8*-|
F#|---5-----5---------5------5-----------5-----5-----5---5------5---------|
B |-5-----6-----8---5------5------5----5-----8-----6---5------5------8----|
    ...................    ...    .    ...................    ...    .

====================================================
Guitars 1 and 2:
C#|-----------------------------------------------------------------------|
G#|-----------------------------------------------------------------------|
E |-----------------------------------------------------------------------|
B |---------------------8*-----8*---8*---------------------8*-----8*---8*-|
F#|-5-5-5-5-5-5-5-5-5-5----5-5----5----5-5-5-5-5-5-5-5-5-5----5-5----5----|
B |-5-5-5-8-8-8-6-6-5-5----5-5----5----5-5-5-8-8-8-6-6-5-5----5-5----5----|
    ...................    ...    .    ...................    ...    .

=====================================================
Guitars 1 and 2:
C#|-----------------------------------------------------------------------|
G#|-----------------------------------------------------------------------|
E |-----------------------------------------------------------------------|
B |---------------------8*-----8*---8*---------------------8*-----8*---8*-|
F#|-5-5-5-5-5-5-5-5-5-5----5-5----5----5-5-5-5-5-5-5-5-5-5----5-5----5----|
B |-5-5-5-6-6-6-8-8-5-5----5-5----5----5-5-5-8-8-8-6-6-5-5----5-5----5----|
    ...................    ...    .    ...................    ...    .


End of Verse 1.
======================================================
Pre Chorus 1:

Guitar 1:
C#|--------------------------------------------------------------------------|
G#|--------------------------------------------------------------------------|
E |--------------------------------------------------------------------------|
B |--------------0-------6-6-6-6-6-6-6---------------0-------6-6-6-----------| x2
F#|--------------0-0-0-0-6-6-6-6-6-6-6---------------0-0-0-0-6-6-6--/6-3-----|
B |-5-8-7--3*~~~-0-0-0-0-6-6-6-6-6-6-6--5-8-7--3*~~~-0-0-0-0-6-6-6-------4-0-|
    .              .....                .              .....  

Guitar 2:
C#|------------------------------------------------------------------------------|
G#|------------------------------------------------------------------------------|
E |------------------------------------------------------------------------------|
B |----------------0-------6-6-6-6-6-6-6-----------------0-------6-6-6-----------| x2
F#|----------------0-0-0-0-6-6-6-6-6-6-6-----------------0-0-0-0-6-6-6--/6-3-----|
B |-5-8*-7*--3*~~~-0-0-0-0-6-6-6-6-6-6-6--5-8*-7*--3*~~~-0-0-0-0-6-6-6-------4-0-|
    .                .....                .                .....     

End of Pre Chorus 1.
======================================================
Chorus 1:

Guitar 1:
C#|-----------------------------------------------------------------|
G#|-----------------------------------------------------------------|
E |-----------------------3-3-3-3-3-----------------5-5-5-5-5-5-5-5-|
B |-5-5-5-5-5-5-5-5-1-1-1-3-3-3-3-3-0-0-0-0-0-0-0-0-5-5-5-5-5-5-5-5-|
F#|-5-5-5-5-5-5-5-5-1-1-1-1-1-1-1-1-0-0-0-0-0-0-0-0-3-3-3-3-3-3-3-3-|
B |-5-5-5-5-5-5-5-5-1-1-1-----------0-0-0-0-0-0-0-0-----------------|


Guitar 2:
C#|-------------------------------------------------------------------------------------------------|
G#|-------------------------------------------------------------------------------------------------|
E |-15-15-15\14-14-14/10-10/12-12-12/14-14-14/15-15-15-15-15\14-14-14\10-10/12-12-12/14-14-14/15-15-|
B |--x--x--x--x--x--x--x--x--x--x--x--x--x--x--x--x--x--x--x--x--x--x--x--x--x--x--x--x--x--x--x--x-|
F#|-13-13-13\12-12-12/-8--8/10-10-10/12-12-12/13-13-13-13-13\12-12-12\-8--8/10-10-10/12-12-12/13-13-|
B |-------------------------------------------------------------------------------------------------|


=======================================================
Guitar 1:
C#|----------------------------------------------------|
G#|----------------------------------------------------|
E |-----------------------3-3-3-3-3--------------------|
B |-5-5-5-5-5-5-5-5-1-1-1-3-3-3-3-3-3~~~-2~~~-1~~~-0~~~|
F#|-5-5-5-5-5-5-5-5-1-1-1-1-1-1-1-1-3~~~-2~~~-1~~~-0~~~|
B |-5-5-5-5-5-5-5-5-1-1-1-----------3~~~-2~~~-1~~~-0~~~|


Guitar 2:
C#|-----------------------------------------------------------------------------------|
G#|-----------------------------------------------------------------------------------|
E |-15-15-15\14-14-14\10-10-10/12-12-12/14-14-14/15-15-15~~-14~~-15~~-15~~-14~~-------|
B |--x--x--x--x--x--x--x--x--x--x--x--x--x--x--x--x--x--x----x----x----x----x---14-14-|
F#|-13-13-13\12-12-12\-8--8--8/10-10-10/12-12-12/13-13-13~~-12~~-13~~-13~~-12~~--x--x-|
B |-----------------------------------------------------------------------------12-12-|


End of Chorus 1.
=======================================================
Break 1:

Guitars 1 and 2:
C#|-------------------------------------------------|
G#|-------------------------------------------------|
E |-------------------------------------------------|
B |-----8-----8---------8-----8---8-----8-----8-----|
F#|---5-----5-----5---5-----5---------5-----5-----5-|
B |-5-----8-----6---5-----5-----5---5-----8-----6---|


=======================================================
Guitar 1:
C#|-----------------------------------|
G#|-----------------------------------|
E |-----------------------------------|
B |-----------------------------------|
F#|-5-5-5-5-5-5-5-5-5-5-5-5-5-5-------|
B |-5-5-5-5-5-5-5-5-5-5-5-5-5-5--12p\-|
    ...........................

Guitar 2:
C#|---------------------------------|
G#|---------------------------------|
E |---------------------------------|
B |---------------------------------|
F#|-5-5-5-5-5-5-5-5-5-5-5-5-5-5-5-5-|
B |-5-5-5-5-5-5-5-5-5-5-5-5-5-5-5-5-|
    ...............................

End of Break 1.
========================================================
Verse 2:

Guitar 1:
C#|-----------------------------------------------------------------|
G#|-----------------------------------------------------------------|
E |-----------------------------------------------------------------|
B |-----------------------------------------------------------------|
F#|-5-5-5-5-5-5-8-8-8-8-8-8-6-6-6-6-5-5-5-5-8-8-5-5-5-5-8-8-5-5-8-8-|
B |-----------------------------------------------------------------|
    ...............................................................



Guitar 2:
C#|-----------------------------------------------------------------|
G#|-----------------------------------------------------------------|
E |-----------------------------------------------------------------|
B |-----------------------------------------------------------------|
F#|-----------------------------------------------------------------|
B |-5-5-5-5-5-5-8-8-8-8-8-8-6-6-6-6-5-5-5-5-8-8-5-5-5-5-8-8-5-5-8-8-|
    ...............................................................


========================================================
Guitar 1:
C#|-------------------------------------------------------------------------------------------------|
G#|-------------------------------------------------------------------------------------------------|
E |-------------------------------------------------------------------------------------------------|
B |-------------------------------------------------------------------------------------------------|
F#|-5-5-5-5-5-5-8-8-8-8-8-8-6-6-6-6-5-5-5-5-8-8-5-5-5-5-8-8-5-5-8-8-5-5-5-5-5-5-6-6-6-6-6-6-8-8-8-8-|
B |-------------------------------------------------------------------------------------------------|
    ...............................................................................................


Guitar 2:
C#|-------------------------------------------------------------------------------------------------|
G#|-------------------------------------------------------------------------------------------------|
E |-------------------------------------------------------------------------------------------------|
B |-------------------------------------------------------------------------------------------------|
F#|-------------------------------------------------------------------------------------------------|
B |-5-5-5-5-5-5-8-8-8-8-8-8-6-6-6-6-5-5-5-5-8-8-5-5-5-5-8-8-5-5-8-8-5-5-5-5-5-5-6-6-6-6-6-6-8-8-8-8-|
    ...............................................................................................

========================================================
Guitar 1:
C#|-------------------------------------------------------------------------------------------------|
G#|-------------------------------------------------------------------------------------------------|
E |-------------------------------------------------------------------------------------------------|
B |-------------------------------------------------------------------------------------------------|
F#|-5-5-5-5-8-8-5-5-5-5-8-8-5-5-8-8-5-5-5-5-5-5-8-8-8-8-8-8-6-6-6-6-5-5-5-5-8-8-5-5-5-5-8-8-5-5-8-8-|
B |-------------------------------------------------------------------------------------------------|
    ...............................................................................................

Guitar 2:
C#|-------------------------------------------------------------------------------------------------|
G#|-------------------------------------------------------------------------------------------------|
E |-------------------------------------------------------------------------------------------------|
B |-------------------------------------------------------------------------------------------------|
F#|-------------------------------------------------------------------------------------------------|
B |-5-5-5-5-8-8-5-5-5-5-8-8-5-5-8-8-5-5-5-5-5-5-8-8-8-8-8-8-6-6-6-6-5-5-5-5-8-8-5-5-5-5-8-8-5-5-8-8-|
    ...............................................................................................

End of Verse 2.
=========================================================
Pre Chorus 2:

Guitar 1:
C#|--------------------------------------------------------------------------|
G#|--------------------------------------------------------------------------|
E |--------------------------------------------------------------------------|
B |--------------0-------6-6-6-6-6-6-6---------------0-------6-6-6-----------| x2
F#|--------------0-0-0-0-6-6-6-6-6-6-6---------------0-0-0-0-6-6-6--/6-3-----|
B |-5-8-7--3*~~~-0-0-0-0-6-6-6-6-6-6-6--5-8-7--3*~~~-0-0-0-0-6-6-6-------4-0-|
    .              .....                .              .....  

Guitar 2:
C#|------------------------------------------------------------------------------|
G#|------------------------------------------------------------------------------|
E |------------------------------------------------------------------------------|
B |----------------0-------6-6-6-6-6-6-6-----------------0-------6-6-6-----------| x2
F#|----------------0-0-0-0-6-6-6-6-6-6-6-----------------0-0-0-0-6-6-6--/6-3-----|
B |-5-8*-7*--3*~~~-0-0-0-0-6-6-6-6-6-6-6--5-8*-7*--3*~~~-0-0-0-0-6-6-6-------4-0-|
    .                .....                .                .....     

End of Pre Chorus 2.
=========================================================
Chorus 2:

Guitar 1:
C#|-----------------------------------------------------------------|
G#|-----------------------------------------------------------------|
E |-----------------------3-3-3-3-3-----------------5-5-5-5-5-5-5-5-|
B |-5-5-5-5-5-5-5-5-1-1-1-3-3-3-3-3-0-0-0-0-0-0-0-0-5-5-5-5-5-5-5-5-|
F#|-5-5-5-5-5-5-5-5-1-1-1-1-1-1-1-1-0-0-0-0-0-0-0-0-3-3-3-3-3-3-3-3-|
B |-5-5-5-5-5-5-5-5-1-1-1-----------0-0-0-0-0-0-0-0-----------------|


Guitar 2:
C#|-------------------------------------------------------------------------------------------------|
G#|-------------------------------------------------------------------------------------------------|
E |-15-15-15\14-14-14/10-10/12-12-12/14-14-14/15-15-15-15-15\14-14-14\10-10/12-12-12/14-14-14/15-15-|
B |--x--x--x--x--x--x--x--x--x--x--x--x--x--x--x--x--x--x--x--x--x--x--x--x--x--x--x--x--x--x--x--x-|
F#|-13-13-13\12-12-12/-8--8/10-10-10/12-12-12/13-13-13-13-13\12-12-12\-8--8/10-10-10/12-12-12/13-13-|
B |-------------------------------------------------------------------------------------------------|


=======================================================
Guitar 1:
C#|----------------------------------------------------|
G#|----------------------------------------------------|
E |-----------------------3-3-3-3-3--------------------|
B |-5-5-5-5-5-5-5-5-1-1-1-3-3-3-3-3-3~~~-2~~~-1~~~-0~~~|
F#|-5-5-5-5-5-5-5-5-1-1-1-1-1-1-1-1-3~~~-2~~~-1~~~-0~~~|
B |-5-5-5-5-5-5-5-5-1-1-1-----------3~~~-2~~~-1~~~-0~~~|


Guitar 2:
C#|-----------------------------------------------------------------------------------|
G#|-----------------------------------------------------------------------------------|
E |-15-15-15\14-14-14\10-10-10/12-12-12/14-14-14/15-15-15~~-14~~-15~~-15~~-14~~-------|
B |--x--x--x--x--x--x--x--x--x--x--x--x--x--x--x--x--x--x----x----x----x----x---14-14-|
F#|-13-13-13\12-12-12\-8--8--8/10-10-10/12-12-12/13-13-13~~-12~~-13~~-13~~-12~~--x--x-|
B |-----------------------------------------------------------------------------12-12-|


========================================================
Guitar 1:
C#|-----------------------------------------------------------------|
G#|-----------------------------------------------------------------|
E |-----------------------3-3-3-3-3-----------------5-5-5-5-5-5-5-5-|
B |-5-5-5-5-5-5-5-5-1-1-1-3-3-3-3-3-0-0-0-0-0-0-0-0-5-5-5-5-5-5-5-5-|
F#|-5-5-5-5-5-5-5-5-1-1-1-1-1-1-1-1-0-0-0-0-0-0-0-0-3-3-3-3-3-3-3-3-|
B |-5-5-5-5-5-5-5-5-1-1-1-----------0-0-0-0-0-0-0-0-----------------|


Guitar 2:
C#|-------------------------------------------------------------------------------------------------|
G#|-------------------------------------------------------------------------------------------------|
E |-15-15-15\14-14-14/10-10/12-12-12/14-14-14/15-15-15-15-15\14-14-14\10-10/12-12-12/14-14-14/15-15-|
B |--x--x--x--x--x--x--x--x--x--x--x--x--x--x--x--x--x--x--x--x--x--x--x--x--x--x--x--x--x--x--x--x-|
F#|-13-13-13\12-12-12/-8--8/10-10-10/12-12-12/13-13-13-13-13\12-12-12\-8--8/10-10-10/12-12-12/13-13-|
B |-------------------------------------------------------------------------------------------------|


=======================================================
Guitar 1:
C#|----------------------------------------------------|
G#|----------------------------------------------------|
E |-----------------------3-3-3-3-3--------------------|
B |-5-5-5-5-5-5-5-5-1-1-1-3-3-3-3-3-3~~~-2~~~-1~~~-0~~~|
F#|-5-5-5-5-5-5-5-5-1-1-1-1-1-1-1-1-3~~~-2~~~-1~~~-0~~~|
B |-5-5-5-5-5-5-5-5-1-1-1-----------3~~~-2~~~-1~~~-0~~~|


Guitar 2:
C#|-----------------------------------------------------------------------------------|
G#|-----------------------------------------------------------------------------------|
E |-15-15-15\14-14-14\10-10-10/12-12-12/14-14-14/15-15-15~~-14~~-15~~-15~~-14~~-------|
B |--x--x--x--x--x--x--x--x--x--x--x--x--x--x--x--x--x--x----x----x----x----x---14-14-|
F#|-13-13-13\12-12-12\-8--8--8/10-10-10/12-12-12/13-13-13~~-12~~-13~~-13~~-12~~--x--x-|
B |-----------------------------------------------------------------------------12-12-|


End of Chorus 2.
=======================================================
Break 2:

Guitars 1 and 2:
C#|-------------------------------------------------|
G#|-------------------------------------------------|
E |-------------------------------------------------|
B |-----8-----8---------8-----8---8-----8-----8-----|
F#|---5-----5-----5---5-----5---------5-----5-------|
B |-5-----8-----6---5-----5-----5---5-----8-----6-0-|



=======================================================
Guitars 1 and 2:
C#|-----------------------------------------------------------------|
G#|-----------------------------------------------------------------|
E |-----------------------------------------------------------------|
B |-----------------------------------------------------------------|
F#|---5-5---5-5---5---5-5---5-5---5---5-5---5-5---5---5-5---5-5---5-|
B |-6-----6-----6---6-----6-----6---6-----6-----6---6-----6-----6---|
    .     .     .   .     .     .   .     .     .   .     .     .


End of Break 2.
=======================================================
Guitar Solo 1 (Jim Root):

Guitar 1:
             1__  .5     1________    1____                       
C#|-----10--------------------------13b---(13)p11-13~~~~~11h13-11~~~~~~~|
G#|--------13b~~13pb--13pb~~~~~~~~x-------------------------------------|
E |-/13---------------------------x-------------------------------------|
B |---------------------------------------------------------------------|
F#|---------------------------------------------------------------------|
B |---------------------------------------------------------------------|


Guitar 2:
C#|----------------------------------------------------------------------------|
G#|----------------------------------------------------------------------------|
E |----------------------------------------------------------------------------|
B |----------------0-------6-6-6-6-6-6-6-----------------0-------6-6-6-6-6-6-6-|
F#|----------------0-0-0-0-6-6-6-6-6-6-6-----------------0-0-0-0-6-6-6-6-6-6-6-|
B |-5-8*-7*--3*~~~-0-0-0-0-6-6-6-6-6-6-6--5-8*-7*--3*~~~-0-0-0-0-6-6-6-6-6-6-6-|
    .                .....                .                .....     

========================================================
Guitar 1:
C#|-/10h11h13p11p10h11p10------------------------------------------------|
G#|----------------------13p11p10h11p10p\8-------------------------------|
E |---------------------------------------10p8h10p8p7--8h10p8h10p8p7-7-7-|
B |--------------------------------------------------10-------------8----|
F#|----------------------------------------------------------------------|
B |----------------------------------------------------------------------|
                                                                    ....

Guitar 1 Continued:
C#|----------------------------|
G#|----------------------------|
E |-7h8-7h8p7-8p7-8p7-7-/12~~~~|
B |----------------------------|
F#|----------------------------|
B |----------------------------|


Guitar 2:
C#|----------------------------------------------------------------------------|
G#|----------------------------------------------------------------------------|
E |----------------------------------------------------------------------------|
B |----------------0-------6-6-6-6-6-6-6-----------------0-------6-6-6-6-6-6-6-|
F#|----------------0-0-0-0-6-6-6-6-6-6-6-----------------0-0-0-0-6-6-6-6-6-6-6-|
B |-5-8*-7*--3*~~~-0-0-0-0-6-6-6-6-6-6-6--5-8*-7*--3*~~~-0-0-0-0-6-6-6-6-6-6-6-|
    .                .....                .                .....

========================================================
Guitar 1:
C#|-----------------------------------------------------------------------------------------------|
G#|-----------------------------------------------------------------------------------------------|
E |------7~~5/10~~\5/7~~\5/8~~5h/7-\5~~~----/17-15-15\14~~~\12-12---------------------------------|
B |------x--x--x---x-x---x-x--x--x--x-----------------------------12-12\10-10/15-15\12-12\10/12~~~|
F#|-13p\-5~~3/-8~~\3/5~~\3/6~~3h/5-\3~~~5p\-------------------------------------------------------|
B |-----------------------------------------------------------------------------------------------|


Guitar 2:
C#|-----------------------------------------------------------------------------|
G#|-----------------------------------------------------------------------------|
E |-----------------------------------------------------------------------------|
B |----------------0-------6-6-6-6-6-6-6-----------------0-------6-6-6----------|
F#|----------------0-0-0-0-6-6-6-6-6-6-6-----------------0-0-0-0-6-6-6--6-3-----|
B |-5-8*-7*--3*~~~-0-0-0-0-6-6-6-6-6-6-6--5-8*-7*--3*~~~-0-0-0-0-6-6-6------4-0-|
    .                .....                .                .....

End of Guitar Solo 1.
=========================================================
Interlude: 

Guitar 3:
C#|-----------------------------------------------------------|
G#|-10~~~~~~~~10~~~~~11~~~~~10~~~~~~~~10~~~~~~~11~~~~~~~~~~~~~|
E |-----------------------------------------------------------|
B |------------8~~~~~~8~~~~~10~~~~~~~~12~~~~~~~---------------|
F#|-10~~~~~~~~------------------------------------------------|
B |-----------------------------------------------------------|

Guitar 4:
C#|-6~~~~~5~~~~~~~-----------5~~~~~~~6~~~~~~8~~~~~~5~~~~~----------7~~~~8~~~~|
G#|---------------6\------------------------------------------8~~~~----------|
E |------------------------------------------------------8~~~~7~~~~----------|
B |-------0~~~~~~~--------------------------0~~~~~~~~~~~~-----0~~~~----------|
F#|-0~~~~~-------------------------------------------------------------------|
B |-------------------8~~~~~~------------------------------------------------|


==========================================================
Guitar 3: Play whole bar once, and then play the first half of the bar once.
C#|---------------------------|----------------------------------|
G#|-10~~~~~~~~10~~~~~~11~~~~~~|10~~~~~~~~10~~~~~~~11~~~~~~~~~~~~~|
E |---------------------------|----------------------------------|
B |------------8~~~~~~8~~~~~~~|10~~~~~~~~12~~~~~~~---------------|
F#|-10~~~~~~~~----------------|----------------------------------|
B |---------------------------|----------------------------------|


Guitar 4: Play whole bar once, and then play the first half of the bar once.
C#|-6~~~~~~5~~~~~~~----------5~~~~~~~6~~~~~~|8~~~~~~5~~~~~-----------7~~~~8~~~~|
G#|----------------6\-----------------------|-------------------8~~~~----------|
E |-----------------------------------------|-------------8~~~~~7~~~~----------|
B |--------0~~~~~~~-------------------------|0~~~~~~~~~~~~------0~~~~----------|
F#|-0~~~~~~---------------------------------|----------------------------------|
B |-------------------8~~~~~~---------------|----------------------------------|


Piano (Sid):
C#|---------------------------------------------------------------------|
G#|-15~~~~~16~~~~15~~~~~15~~~~~~~~~~16~~~~15~~~~~~15~~~~~~16~~~~~15~~~~~|
E |---------------------------------------------------------------------|
B |---------------------------------------------------------------------|
F#|---------------------------------------------------------------------|
B |---------------------------------------------------------------------|


==========================================================
Guitar 1:
C#|-------------------------------|
G#|-------------------------------|
E |-------------------------------|
B |------3~~~~-2~~~~-1~~~~-0~~~~~~|
F#|-12p\-3~~~~-2~~~~-1~~~~-0~~~~~~|
B |-12p\-3~~~~-2~~~~-1~~~~-0~~~~~~|

Guitar 2:
C#|--------------------------------------------|
G#|--------------------------------------------|
E |------15~~~-14~~~-15--15~~~~~-14~~~~--------|
B |-------x-----x-----x---x--------------14-14-|
F#|-12p\-13~~~-12~~~-13--13~~~~~-12~~~~---x--x-|
B |-12p\---------------------------------12-12-|

End of Interlude.
==========================================================
Chorus 3:

Guitar 1:
C#|-----------------------------------------------------------------|
G#|-----------------------------------------------------------------|
E |-----------------------3-3-3-3-3-----------------5-5-5-5-5-5-5-5-|
B |-5-5-5-5-5-5-5-5-1-1-1-3-3-3-3-3-0-0-0-0-0-0-0-0-5-5-5-5-5-5-5-5-|
F#|-5-5-5-5-5-5-5-5-1-1-1-1-1-1-1-1-0-0-0-0-0-0-0-0-3-3-3-3-3-3-3-3-|
B |-5-5-5-5-5-5-5-5-1-1-1-----------0-0-0-0-0-0-0-0-----------------|


Guitar 2:
C#|-------------------------------------------------------------------------------------------------|
G#|-------------------------------------------------------------------------------------------------|
E |-15-15-15\14-14-14/10-10/12-12-12/14-14-14/15-15-15-15-15\14-14-14\10-10/12-12-12/14-14-14/15-15-|
B |--x--x--x--x--x--x--x--x--x--x--x--x--x--x--x--x--x--x--x--x--x--x--x--x--x--x--x--x--x--x--x--x-|
F#|-13-13-13\12-12-12/-8--8/10-10-10/12-12-12/13-13-13-13-13\12-12-12\-8--8/10-10-10/12-12-12/13-13-|
B |-------------------------------------------------------------------------------------------------|


=======================================================
Guitar 1:
C#|----------------------------------------------------|
G#|----------------------------------------------------|
E |-----------------------3-3-3-3-3--------------------|
B |-5-5-5-5-5-5-5-5-1-1-1-3-3-3-3-3-3~~~-2~~~-1~~~-0~~~|
F#|-5-5-5-5-5-5-5-5-1-1-1-1-1-1-1-1-3~~~-2~~~-1~~~-0~~~|
B |-5-5-5-5-5-5-5-5-1-1-1-----------3~~~-2~~~-1~~~-0~~~|


Guitar 2:
C#|-----------------------------------------------------------------------------------|
G#|-----------------------------------------------------------------------------------|
E |-15-15-15\14-14-14\10-10-10/12-12-12/14-14-14/15-15-15~~-14~~-15~~-15~~-14~~-------|
B |--x--x--x--x--x--x--x--x--x--x--x--x--x--x--x--x--x--x----x----x----x----x---14-14-|
F#|-13-13-13\12-12-12\-8--8--8/10-10-10/12-12-12/13-13-13~~-12~~-13~~-13~~-12~~--x--x-|
B |-----------------------------------------------------------------------------12-12-|


========================================================
Guitar 1:
C#|-----------------------------------------------------------------|
G#|-----------------------------------------------------------------|
E |-----------------------3-3-3-3-3-----------------5-5-5-5-5-5-5-5-|
B |-5-5-5-5-5-5-5-5-1-1-1-3-3-3-3-3-0-0-0-0-0-0-0-0-5-5-5-5-5-5-5-5-|
F#|-5-5-5-5-5-5-5-5-1-1-1-1-1-1-1-1-0-0-0-0-0-0-0-0-3-3-3-3-3-3-3-3-|
B |-5-5-5-5-5-5-5-5-1-1-1-----------0-0-0-0-0-0-0-0-----------------|


Guitar 2:
C#|-------------------------------------------------------------------------------------------------|
G#|-------------------------------------------------------------------------------------------------|
E |-15-15-15\14-14-14/10-10/12-12-12/14-14-14/15-15-15-15-15\14-14-14\10-10/12-12-12/14-14-14/15-15-|
B |--x--x--x--x--x--x--x--x--x--x--x--x--x--x--x--x--x--x--x--x--x--x--x--x--x--x--x--x--x--x--x--x-|
F#|-13-13-13\12-12-12/-8--8/10-10-10/12-12-12/13-13-13-13-13\12-12-12\-8--8/10-10-10/12-12-12/13-13-|
B |-------------------------------------------------------------------------------------------------|


=======================================================
Guitar 1:
C#|----------------------------------------------------|
G#|----------------------------------------------------|
E |-----------------------3-3-3-3-3--------------------|
B |-5-5-5-5-5-5-5-5-1-1-1-3-3-3-3-3-3~~~-2~~~-1~~~-0~~~|
F#|-5-5-5-5-5-5-5-5-1-1-1-1-1-1-1-1-3~~~-2~~~-1~~~-0~~~|
B |-5-5-5-5-5-5-5-5-1-1-1-----------3~~~-2~~~-1~~~-0~~~|


Guitar 2:
C#|-----------------------------------------------------------------------------------|
G#|-----------------------------------------------------------------------------------|
E |-15-15-15\14-14-14\10-10-10/12-12-12/14-14-14/15-15-15~~-14~~-15~~-15~~-14~~-------|
B |--x--x--x--x--x--x--x--x--x--x--x--x--x--x--x--x--x--x----x----x----x----x---14-14-|
F#|-13-13-13\12-12-12\-8--8--8/10-10-10/12-12-12/13-13-13~~-12~~-13~~-13~~-12~~--x--x-|
B |-----------------------------------------------------------------------------12-12-|

End of Chorus 3.
=======================================================
Outro:

Guitar Solo 2 (Jim Root):

Guitar 3:
                                                          1___                        1___
C#|-------------------------------------------------------------------------------------------|
G#|-15h16p15p13-15~~~~~~13-15-15h16p15p13-15~~~~~~13-15-16b--(16)-16p15-15p13\11-13-13b--(13)-|
E |-------------------------------------------------------------------------------------------|
B |-------------------------------------------------------------------------------------------|
F#|-------------------------------------------------------------------------------------------|
B |-------------------------------------------------------------------------------------------|


Guitar 1:
C#|-----------------------------------------------------------------|
G#|-----------------------------------------------------------------|
E |-----------------------3-3-3-3-3-----------------5-5-5-5-5-5-5-5-|
B |-5-5-5-5-5-5-5-5-1-1-1-3-3-3-3-3-0-0-0-0-0-0-0-0-5-5-5-5-5-5-5-5-|
F#|-5-5-5-5-5-5-5-5-1-1-1-1-1-1-1-1-0-0-0-0-0-0-0-0-3-3-3-3-3-3-3-3-|
B |-5-5-5-5-5-5-5-5-1-1-1-----------0-0-0-0-0-0-0-0-----------------|


Guitar 2:
C#|-------------------------------------------------------------------------------------------------|
G#|-------------------------------------------------------------------------------------------------|
E |-15-15-15\14-14-14/10-10/12-12-12/14-14-14/15-15-15-15-15\14-14-14\10-10/12-12-12/14-14-14/15-15-|
B |--x--x--x--x--x--x--x--x--x--x--x--x--x--x--x--x--x--x--x--x--x--x--x--x--x--x--x--x--x--x--x--x-|
F#|-13-13-13\12-12-12/-8--8/10-10-10/12-12-12/13-13-13-13-13\12-12-12\-8--8/10-10-10/12-12-12/13-13-|
B |-------------------------------------------------------------------------------------------------|


=======================================================
Guitar 3:
C#|-------------------------------------------------------------------------|
G#|-11h13-11h13p11p\10-11h13-10h/11-10-------13p11p10----11h13-11-10~~~~11\-|
E |------------------------------------12~~~~---------12--------------------|
B |-------------------------------------------------------------------------|
F#|-------------------------------------------------------------------------|
B |-------------------------------------------------------------------------|

Guitar 1:
C#|---------------------------------|
G#|---------------------------------|
E |-----------------------3-3-3-3-3-|
B |-5-5-5-5-5-5-5-5-1-1-1-3-3-3-3-3-|
F#|-5-5-5-5-5-5-5-5-1-1-1-1-1-1-1-1-|
B |-5-5-5-5-5-5-5-5-1-1-1-----------|


Guitar 2:
B |----------------------------------------------------|
F#|----------------------------------------------------|
D |-15-15-15\14-14-14\10-10-10/12-12-12/14-14-14/15-15-|
A |--x--x--x--x--x--x--x--x--x--x--x--x--x--x--x--x--x-|
E |-13-13-13\12-12-12\-8--8--8/10-10-10/12-12-12/13-13-|
B |----------------------------------------------------|

End of Guitar Solo 2.
========================================================
Guitar 3: Use delay only on the last note (8p\).
C#|--------------------------------------------------------------------------|
G#|--------------------------------------------------------------------------|
E |-10~~~~~9~~~~~~~~---------------------------------------------------------|
B |-----------------13~~~~~~12~~~~~~~~~~~~~~~~~~~~~~(12)!~~~~~~~~--x12-------|
F#|--------------------------------------------------------------[5h8p5]-8p\-|
B |--------------------------------------------------------------------------|

Guitar 1:
C#|----------------------------------------------------------------|
G#|----------------------------------------------------------------|
E |----------------------------------------------------------------|
B |-3~~~~-2~~~~-1~~~~-0~~~~~~~~~~~~~~~~~~~~~~~~~(0)!~~~~~~~~~~~~~~~|
F#|-3~~~~-2~~~~-1~~~~-0~~~~~~~~~~~~~~~~~~~~~~~~~(0)!~~~~~~~~~~~~~~~|
B |-3~~~~-2~~~~-1~~~~-0~~~~~~~~~~~~~~~~~~~~~~~~~(0)!~~~~~~~~~~~~~~~|


Guitar 2:
C#|----------------------------------------------------------------|
G#|----------------------------------------------------------------|
E |-15~~~~-14~~~~-15~~~~-15~~~~-14~~~~~~~~~~~~~(14)!~~~~~~~~~~~~~~~|
B |--x------x------x------x------x---------------------------------|
F#|-13~~~~-12~~~~-13~~~~-13~~~~-12~~~~~~~~~~~~~(12)!~~~~~~~~~~~~~~~|
B |----------------------------------------------------------------|


End of Song.

Please Rate and Comment My Tab.
Thanks.
[travis]


================================================================================
================================================================================
-------------------------------------------------------------------------------
			    "Vendetta" --- Slipknot
-------------------------------------------------------------------------------


Tabbed by: [travis]


**I tabbed this all by ear, and it sounds 100% correct and dead on.
**This is such a kick a$$ song from Slipknot's new CD called "All Hope Is Gone."
**There was only one good tab of this song on this site, but there were some
  parts missing, and it wasn't all complete. So, I decided to tab out this song
  myself.
**This tab only took me a day to tab out, and it's a really simple song to play.
**Again, this is all tabbed out by ear, with no help from magazines or tab books.

**Hope you like this tab.

Tuning: All Guitars = B F# B E G# C# (low to high)
                      B Gb B E Ab Db (in case you don't uderstand the above tuning)

Key: F Major (F G A Bb C D E)

Legend:

... = palm mute
h = hammer on
p = pull off
b = bend
+ = tremelo pick
/ = slide up
\ = slide down
h/ = pick once
p\ = pick once
h/p\h/ = pick once
p\h/p\ = pick once


=====================================
Intro:
Guitars 1 and 2: slide up the neck after you tremelo pick the 5th fret, don't
                 tremelo pick while going up the neck though.
          ++++++++++++++++++++++++++++++++
C#|----------------------------------------------------------|
G#|----------------------------------------------------------|
E |----------------------------------------------------------|
B |----------------------------------------------------------| x1
F#|------------------------------------------0-000-0-0-0-0-0-|
B |-13p\--0--3---2--5---3--6---0--3---2--5/--0-000-0-0-0-0-0-|
                                             ...............

=====================================
Guitars 1 and 2:
    ++++++++++++++++++++++++++++++++

C#|---------------------------------------------------|
G#|---------------------------------------------------|
E |---------------------------------------------------|
B |---------------------------------------------------| x1
F#|-----------------------------------0-000-0-0-0-0-0-|
B |-0--3---2--5---3--6---0--3---2--5--0-000-0-0-0-0-0-|
                                      ...............

======================================
Guitars 1 and 2:
    ++++++++++++++++++++++++++++++++
C#|---------------------------------------------------|
G#|---------------------------------------------------|
E |---------------------------------------------------|
B |---------------------------------------------------| x2
F#|-----------------------------------0-000-0-0-0-0-0-|
B |-0--3---2--5---3--6---0--3---2--5--0-000-0-0-0-0-0-|
                                      ...............

Guitar 3:
    +++++++++++++++++++++++++++++++++
C#|----------------------------------------------------|
G#|----------------------------------------------------|
E |----------------------------------------------------|
B |-4--7---6--9---7--10---4--7---6--9------------------| x2
F#|------------------------------------0-000-0-0-0-0-0-|
B |------------------------------------0-000-0-0-0-0-0-|
                                       ...............

=======================================
Riff:

Guitars 1 and 2:
C#|-------------------------------------------------------------------|
G#|-------------------------------------------------------------------|
E |-------------------------------------------------------------------|
B |-------------------------------------------------------------------|
F#|-0-000-0-0-0-0-0-0-0-0--0-000-0-0-0-0-0-0-0-0--0-000-0-0-0-0-0-0-0-|
B |-0-000-0-0-0-0-0-0-0-0--0-000-0-0-0-0-0-0-0-0--0-000-0-0-0-0-0-0-0-|
    .................................................................

========================================
Guitars 1 and 2:
C#|---------------------------|
G#|---------------------------|
E |---------------------------|
B |---------------------------|
F#|-0-000-0-0-0-0-0-0-0-------|
B |-0-000-0-0-0-0-0-0-0--13p\-|
    ...................

========================================
Verse 1:

Guitars 1 and 2:
C#|---------------------------------------------------------------|
G#|---------------------------------------------------------------|
E |-----------------------------------------------10p\9-9-9-9h/12-|
B |------------------------------------------------x--x-x-x-x---x-|
F#|------------------------------------------------8p\7-7-7-7h/10-|
B |-0--0-000-1p0--0--0-000-3h4p3--0--0-000-1p0--0-----------------|
    ........      ........        ........      .

=========================================
Guitars 1 and 2:
C#|-------------------------------------------------------------------|
G#|-------------------------------------------------------------------|
E |------------------------------------------------12p\10-10-10-10p/9-|
B |-------------------------------------------------x---x--x--x--x--x-|
F#|------------------------------------------------10p\-8--8--8--8p/7-|
B |-0--0-000-1p0--0--0-000-3h4p3--0--0-000-1p0--0---------------------|
    ........      ........        ........      .

=========================================
Guitars 1 and 2:

C#|---------------------------------------------------------------|
G#|---------------------------------------------------------------|
E |-----------------------------------------------10p\9-9-9-9h/12-|
B |------------------------------------------------x--x-x-x-x---x-|
F#|------------------------------------------------8p\7-7-7-7h/10-|
B |-0--0-000-1p0--0--0-000-3h4p3--0--0-000-1p0--0-----------------|
    ........      ........        ........      .

=========================================
Guitars 1 and 2:
C#|-------------------------------------------------------------------|
G#|-------------------------------------------------------------------|
E |------------------------------------------------12p\10-10-10-10p/9-|
B |-------------------------------------------------x---x--x--x--x--x-|
F#|------------------------------------------------10p\-8--8--8--8p/7-|
B |-0--0-000-1p0--0--0-000-3h4p3--0--0-000-1p0--0---------------------|
    ........      ........        ........      .

==========================================
Interlude 1:

Guitars 1 and 2:
    ++++++++++++++++++++++++++++++++
C#|---------------------------------------------------|
G#|---------------------------------------------------|
E |---------------------------------------------------|
B |---------------------------------------------------| x1
F#|-----------------------------------0-000-0-0-0-0-0-|
B |-0--3---2--5---3--6---0--3---2--5--0-000-0-0-0-0-0-|
                                      ...............

=========================================
Guitars 1 and 2:
    ++++++++++++++++++++++++++++++++
C#|--------------------------------------------------------|
G#|--------------------------------------------------------|
E |--------------------------------------------------------|
B |--------------------------------------------------------| x1
F#|-----------------------------------0-000-0-0-0-0-0------|
B |-0--3---2--5---3--6---0--3---2--5--0-000-0-0-0-0-0-13p\-|
                                      ...............

Guitar 3:
    +++++++++++++++++++++++++++++++++
C#|---------------------------------------------------------|
G#|---------------------------------------------------------|
E |---------------------------------------------------------|
B |-4--7---6--9---7--10---4--7---6--9-----------------------| x1
F#|------------------------------------0-000-0-0-0-0-0------|
B |------------------------------------0-000-0-0-0-0-0-13p\-|
                                       ...............

===========================================
Verse 2:

Guitars 1 and 2:
C#|---------------------------------------------------------------|
G#|---------------------------------------------------------------|
E |-----------------------------------------------10p\9-9-9-9h/12-|
B |------------------------------------------------x--x-x-x-x---x-|
F#|------------------------------------------------8p\7-7-7-7h/10-|
B |-0--0-000-1p0--0--0-000-3h4p3--0--0-000-1p0--0-----------------|
    ........      ........        ........      .

=========================================
Guitars 1 and 2:
C#|-------------------------------------------------------------------|
G#|-------------------------------------------------------------------|
E |------------------------------------------------12p\10-10-10-10p/9-|
B |-------------------------------------------------x---x--x--x--x--x-|
F#|------------------------------------------------10p\-8--8--8--8p/7-|
B |-0--0-000-1p0--0--0-000-3h4p3--0--0-000-1p0--0---------------------|
    ........      ........        ........      .

=========================================

Guitars 1 and 2:
C#|---------------------------------------------------------------|
G#|---------------------------------------------------------------|
E |-----------------------------------------------10p\9-9-9-9h/12-|
B |------------------------------------------------x--x-x-x-x---x-|
F#|------------------------------------------------8p\7-7-7-7h/10-|
B |-0--0-000-1p0--0--0-000-3h4p3--0--0-000-1p0--0-----------------|
    ........      ........        ........      .

=========================================
Guitars 1 and 2:
C#|-------------------------------------------------------------------|
G#|-------------------------------------------------------------------|
E |------------------------------------------------12p\10-10-10-10p/9-|
B |-------------------------------------------------x---x--x--x--x--x-|
F#|------------------------------------------------10p\-8--8--8--8p/7-|
B |-0--0-000-1p0--0--0-000-3h4p3--0--0-000-1p0--0---------------------|
    ........      ........        ........      .


=========================================
Pre Chorus 1:

**Guitars 1 and 2: Play all these notes together. I just spaced
                 them out so it's easier for you to read.

                          x4                                (4th ending)
C#|-|----------------------------------------------------|-|-----|
G#|O|----------------------------------------------------|O|-----|
E |-|----------------------------------------------------|-|-----|
B |-|----------------------------------------------------|-|-----|
F#|O|-------------------------8-7-6--7-6-5--6-5-4--5-4-3-|O|-----|
B |-|-0-2-3-5--3-5-6-5-6-5-3-----------------------------|-|13p\-|
      ..................................................

  **Play the part in between the two bars with the |o|s in them 4 times,
    and play the 13p\ at the end of the 4th time.**

Guitars 1 and 2: This is what it looks like when not spaced out:
                 It should be played this way.

                    x4                                (4th ending)
C#|-|-----------------------------------------------|-|------|
G#|O|-----------------------------------------------|O|------|
E |-|-----------------------------------------------|-|------|
B |-|-----------------------------------------------|-|------|
F#|O|-----------------------8-7-6-7-6-5-6-5-4-5-4-3-|O|------|
B |-|-0-2-3-5-3-5-6-5-6-5-3-------------------------|-|-13p\-|
      .............................................

=========================================
Chorus 1:

Guitars 1 and 2:
C#|-----------------------------------------------------------------------------|
G#|-----------------------------------------------------------------------------|
E |-----------------------------------------------------------------------------|
B |-----------------------------------------------------------------------------| x2
F#|-0-0--6--5--3~(3)/--0-0--8--7--\1~(1)/--0-0--6--5--3~(3)/--0-0--3--2--1~(1)\-|
B |-0-0--6--5--3~(3)/--0-0--8--7--\1~(1)/--0-0--6--5--3~(3)/--0-0--3--2--1~(1)\-|
    ...                ...                 ...                ...

Guitar 3: Jim is using an octave effect pedal on these notes.
C#|---------------------------------|
G#|---------------------------------|
E |-19~~~~--\17~~~~---\10~~~~(10)\--|
B |--x--------x---------x-----------| x2
F#|-17~~~~--\15~~~~---\-8~~~~(8)\---|
B |---------------------------------|

===========================================
Interlude:

Guitars 1 and 2:
    ++++++++++++++++++++++++++++++++

C#|---------------------------------------------------|
G#|---------------------------------------------------|
E |---------------------------------------------------|
B |---------------------------------------------------| x1
F#|-----------------------------------0-000-0-0-0-0-0-|
B |-0--3---2--5---3--6---0--3---2--5--0-000-0-0-0-0-0-|
                                      ...............

=========================================
Guitars 1 and 2:
    ++++++++++++++++++++++++++++++++
C#|---------------------------------------------------|
G#|---------------------------------------------------|
E |---------------------------------------------------|
B |---------------------------------------------------| x1
F#|-----------------------------------0-000-0-0-0-0-0-|
B |-0--3---2--5---3--6---0--3---2--5--0-000-0-0-0-0-0-|
                                      ...............

Guitar 3:
    +++++++++++++++++++++++++++++++++
C#|----------------------------------------------------|
G#|----------------------------------------------------|
E |----------------------------------------------------|
B |-4--7---6--9---7--10---4--7---6--9------------------| x1
F#|------------------------------------0-000-0-0-0-0-0-|
B |------------------------------------0-000-0-0-0-0-0-|
                                       ...............

==========================================
Verse 3:

Guitars 1 and 2:
C#|---------------------------------------------------------------|
G#|---------------------------------------------------------------|
E |-----------------------------------------------10p\9-9-9-9h/12-|
B |------------------------------------------------x--x-x-x-x---x-|
F#|------------------------------------------------8p\7-7-7-7h/10-|
B |-0--0-000-1p0--0--0-000-3h4p3--0--0-000-1p0--0-----------------|
    ........      ........        ........      .

=========================================
Guitars 1 and 2:
C#|-------------------------------------------------------------------|
G#|-------------------------------------------------------------------|
E |------------------------------------------------12p\10-10-10-10p/9-|
B |-------------------------------------------------x---x--x--x--x--x-|
F#|------------------------------------------------10p\-8--8--8--8p/7-|
B |-0--0-000-1p0--0--0-000-3h4p3--0--0-000-1p0--0---------------------|
    ........      ........        ........      .

=========================================
Guitars 1 and 2:
C#|---------------------------------------------------------------|
G#|---------------------------------------------------------------|
E |-----------------------------------------------10p\9-9-9-9h/12-|
B |------------------------------------------------x--x-x-x-x---x-|
F#|------------------------------------------------8p\7-7-7-7h/10-|
B |-0--0-000-1p0--0--0-000-3h4p3--0--0-000-1p0--0-----------------|
    ........      ........        ........      .

=========================================
Guitars 1 and 2:
C#|-------------------------------------------------------------------|
G#|-------------------------------------------------------------------|
E |------------------------------------------------12p\10-10-10-10p/9-|
B |-------------------------------------------------x---x--x--x--x--x-|
F#|------------------------------------------------10p\-8--8--8--8p/7-|
B |-0--0-000-1p0--0--0-000-3h4p3--0--0-000-1p0--0---------------------|
    ........      ........        ........      .

=========================================
Pre Chorus 2:

**Guitars 1 and 2: Play all these notes together. I just spaced
                 them out so it's easier for you to read.

                          x4                                (4th ending)
C#|-|----------------------------------------------------|-|-----|
G#|O|----------------------------------------------------|O|-----|
E |-|----------------------------------------------------|-|-----|
B |-|----------------------------------------------------|-|-----|
F#|O|-------------------------8-7-6--7-6-5--6-5-4--5-4-3-|O|-----|
B |-|-0-2-3-5--3-5-6-5-6-5-3-----------------------------|-|13p\-|
      ..................................................

  **Play the part in between the two bars with the |o|s in them 4 times,
    and play the 13p\ at the end of the 4th time.**


Guitars 1 and 2: This is what it looks like when not spaced out:
                 It should be played this way.

                    x4                                (4th ending)
C#|-|-----------------------------------------------|-|------|
G#|O|-----------------------------------------------|O|------|
E |-|-----------------------------------------------|-|------|
B |-|-----------------------------------------------|-|------|
F#|O|-----------------------8-7-6-7-6-5-6-5-4-5-4-3-|O|------|
B |-|-0-2-3-5-3-5-6-5-6-5-3-------------------------|-|-13p\-|
      .............................................

===========================================
Chorus 2:

Guitars 1 and 2:
C#|-----------------------------------------------------------------------------|
G#|-----------------------------------------------------------------------------|
E |-----------------------------------------------------------------------------|
B |-----------------------------------------------------------------------------| x4
F#|-0-0--6--5--3~(3)/--0-0--8--7--\1~(1)/--0-0--6--5--3~(3)/--0-0--3--2--1~(1)\-|
B |-0-0--6--5--3~(3)/--0-0--8--7--\1~(1)/--0-0--6--5--3~(3)/--0-0--3--2--1~(1)\-|
    ...                ...                 ...                ...

Guitar 3: Jim is using an octave effect pedal on these notes.
C#|---------------------------------|
G#|---------------------------------|
E |-19~~~~--\17~~~~---\10~~~~(10)\--|
B |--x--------x---------x-----------| x4
F#|-17~~~~--\15~~~~---\-8~~~~(8)\---|
B |---------------------------------|


============================================
Break Riff:

Guitars 1 and 2:
C#|-----------------------------------------------------------------------------------|
G#|-----------------------------------------------------------------------------------|
E |-----------------------------------------------------------------------------------|
B |-------------------------------7--5--7p\5h/8~----------------------------5--5------| x6
F#|-------0-3-2------------0-3-2--5--3--5p\3h/6~--0-2-3-2------------0-3-2--3--3-4-3~-|
B |-1h3~--0-3-2--1h3-1h3~--0-3-2------------------0-2-3-2--1h3-1h3~--0-3-2-------4-3~-|
          .....            .....                  .......            .....

=============================================
Interlude 3:

Guitars 1 and 2:
    ++++++++++++++++++++++++++++++++
C#|---------------------------------------------------|
G#|---------------------------------------------------|
E |---------------------------------------------------|
B |---------------------------------------------------| x1
F#|-----------------------------------0-000-0-0-0-0-0-|
B |-0--3---2--5---3--6---0--3---2--5--0-000-0-0-0-0-0-|
                                      ...............

==============================================
Guitars 1 and 2:
    ++++++++++++++++++++++++++++++++

C#|-------------------------------------------------------------------------------|
G#|-------------------------------------------------------------------------------|
E |-------------------------------------------------------------------------------|
B |-------------------------------------------------------------------------------| x1
F#|-----------------------------------0-000-0-0-0-0-0-0-0-0-----------------------|
B |-0--3---2--5---3--6---0--3---2--5--0-000-0-0-0-0-0-0-0-0-0-2-3-5-3-5-6-5-6-5-3-|
                                      ...........................................

Guitar 3:
    +++++++++++++++++++++++++++++++++
C#|--------------------------------------------------------------------------------|
G#|--------------------------------------------------------------------------------|
E |--------------------------------------------------------------------------------|
B |-4--7---6--9---7--10---4--7---6--9----------------------------------------------| x1
F#|------------------------------------0-000-0-0-0-0-0-0-0-0-----------------------|
B |------------------------------------0-000-0-0-0-0-0-0-0-0-0-2-3-5-3-5-6-5-6-5-3-|
                                       ...........................................

==============================================
Chorus 3:

Guitars 1 and 2:
C#|-----------------------------------------------------------------------------|
G#|-----------------------------------------------------------------------------|
E |-----------------------------------------------------------------------------|
B |-----------------------------------------------------------------------------| x4
F#|-0-0--6--5--3~(3)/--0-0--8--7--\1~(1)/--0-0--6--5--3~(3)/--0-0--3--2--1~(1)\-|
B |-0-0--6--5--3~(3)/--0-0--8--7--\1~(1)/--0-0--6--5--3~(3)/--0-0--3--2--1~(1)\-|
    ...                ...                 ...                ...

Guitar 3: Jim is using an octave effect pedal on these notes.
C#|---------------------------------|
G#|---------------------------------|
E |-19~~~~--\17~~~~---\10~~~~(10)\--|
B |--x--------x---------x-----------| x4
F#|-17~~~~--\15~~~~---\-8~~~~(8)\---|
B |---------------------------------|

==============================================
Ending:

Guitars 1 and 2:
C#|-----------------------------------------------------------------------------------|
G#|-----------------------------------------------------------------------------------|
E |-----------------------------------------------------------------------------------|
B |-------------------------------7--5--7p\5h/8~----------------------------5--5------| x3
F#|-------0-3-2------------0-3-2--5--3--5p\3h/6~--0-2-3-2------------0-3-2--3--3-4-3~-|
B |-1h3~--0-3-2--1h3-1h3~--0-3-2------------------0-2-3-2--1h3-1h3~--0-3-2-------4-3~-|
          .....            .....                  .......            .....

================================================
Guitars 1 and 2:
C#|------------------------------------------------------------------------------------------|
G#|------------------------------------------------------------------------------------------|
E |------------------------------------------------------------------------------------------|
B |-------------------------------7--5--7p\5h/8~----------------------------5--5-------------| x1
F#|-------0-3-2------------0-3-2--5--3--5p\3h/6~--0-2-3-2------------0-3-2--3--3-4-3~~~~(3)\-|
B |-1h3~--0-3-2--1h3-1h3~--0-3-2------------------0-2-3-2--1h3-1h3~--0-3-2-------4-3~~~~(3)\-|
          .....            .....                  .......            .....


That's it.
Please Rate and Comment this tab.
[travis]


END
=============================================================================
=============================================================================
-------------------------------------------------------------------------------
			     Slipknot - Butcher's Hook
-------------------------------------------------------------------------------
Tabbed by Survivalism

Tuning: B F# B E G C

Intro:  x2
C |----------------------------------------------------------|
G |----------------------------------------------------------|
E |----------------------------------------------------------|
B |-4--4-------4----4----4-------4--4------4-----4-----------|
F#|-4--4-1-1---4-1--4-1--4--1-1--4--4-1-1--4--1--4-------3/4-|
B |------1-1-----1----1-----1-1-------1-1-----1------1-1-3/4-|
                                                     . .

Verse:  x4
C |---------------------------------------------------------|
G |---------------------------------------------------------|
E |---------------------------------------------------------|
B |-4-------4-----4-------4--3-----4--------4----4----------|
F#|-4--1--1-4--1--4-1--1--2--1--1--4--1--1--4-1--4--1-1-3/4-|
B |----1--1----1----1--1--------1-----1--1----1-----1-1-3/4-|
       .  .    .    .  .        .     .  .    .     . .

Pre-chorus:
C |-Mick:-----------------------------------------------------------------|
G |-----------------------------------------------------------------------|
E |-----------------------------------------------------------------------|
B |-------------7------------------7---------7----------------------------|
F#|-8---7---8------8---7---8---7------8---7-----8---7---8---7---1---3---5-|
B |-------------------------------------------------------------1---3---5-|

C |-James:----------------------------------------------------------------|
G |-----------------------------------------------------------------------|
E |-----------------------------------------------------------------------|
B |-------------2------------------2---------2----------------------------|
F#|-1---0---1------1---0---1---0------1---0-----1---0---1---0---1---3---5-|
B |-------------------------------------------------------------1---3---5-|

Chorus:
C |---------------------------------------------------------------------------------------|
G |---------------------------------------------------------------------------------------|
E |---------------------------------------------------------------------------------------|
B |-----7---7-------3----------3---3/5\3-------7---7-------3-------------------13--13--13-|
F#|-8---7---7---1---3---1------------------8---7---7---1---3---1---5---3---3\\-13--13--13-|
B |-8-------7---1-------1---3--------------8-------7---1-------1---5---3---3\\------------|
                .   .   .                              .   .   .
C |----------------------------------------------------------------|
G |----------------------------------------------------------------|
E |----------------------------------------------------------------|
B |-----7---7-------3----------3---3/7---------7---7-------3-------|
F#|-8---7---7---1---3---1------------------8---7---7---1---3---1---|
B |-8-------7---1-------1---3--------------8-------7---1-------1---|
                .   .   .                              .   .   .

C |--------------------------------------|
G |--------------------------------------|
E |--------------------------------------|
B |-4--------5--------8-----8------------|
F#|-2--3--2--3--3--3--6--7--6--4-1-1-2-3-|
B |----3--2-----3--3-----7-----4-1-1-2-3-|
       .  .     .  .     .     . . . . .

Intro:  x2
C |----------------------------------------------------------|
G |----------------------------------------------------------|
E |----------------------------------------------------------|
B |-4--4-------4----4----4-------4--4------4-----4-----------|
F#|-4--4-1-1---4-1--4-1--4--1-1--4--4-1-1--4--1--4-------3/4-|
B |------1-1-----1----1-----1-1-------1-1-----1------1-1-3/4-|
                                                     . .

Verse:  x4
C |---------------------------------------------------------|
G |---------------------------------------------------------|
E |---------------------------------------------------------|
B |-4-------4-----4-------4--3-----4--------4----4----------|
F#|-4--1--1-4--1--4-1--1--2--1--1--4--1--1--4-1--4--1-1-3/4-|
B |----1--1----1----1--1--------1-----1--1----1-----1-1-3/4-|
       .  .    .    .  .        .     .  .    .     . .

Pre-chorus:
C |-Mick:-----------------------------------------------------------------|
G |-----------------------------------------------------------------------|
E |-----------------------------------------------------------------------|
B |-------------7------------------7---------7----------------------------|
F#|-8---7---8------8---7---8---7------8---7-----8---7---8---7---1---3---5-|
B |-------------------------------------------------------------1---3---5-|

C |-James:----------------------------------------------------------------|
G |-----------------------------------------------------------------------|
E |-----------------------------------------------------------------------|
B |-------------2------------------2---------2----------------------------|
F#|-1---0---1------1---0---1---0------1---0-----1---0---1---0---1---3---5-|
B |-------------------------------------------------------------1---3---5-|

Chorus:
C |---------------------------------------------------------------------------------------|
G |---------------------------------------------------------------------------------------|
E |---------------------------------------------------------------------------------------|
B |-----7---7-------3----------3---3/5\3-------7---7-------3-------------------13--13--13-|
F#|-8---7---7---1---3---1------------------8---7---7---1---3---1---5---3---3\\-13--13--13-|
B |-8-------7---1-------1---3--------------8-------7---1-------1---5---3---3\\------------|
                .   .   .                              .   .   .
C |----------------------------------------------------------------|
G |----------------------------------------------------------------|
E |----------------------------------------------------------------|
B |-----7---7-------3----------3---3/7---------7---7-------3-------|
F#|-8---7---7---1---3---1------------------8---7---7---1---3---1---|
B |-8-------7---1-------1---3--------------8-------7---1-------1---|
                .   .   .                              .   .   .

C |--------------------------------------|
G |--------------------------------------|
E |--------------------------------------|
B |-4--------5--------8-----8------------|
F#|-2--3--2--3--3--3--6--7--6--4\1-2-3-4-|
B |----3--2-----3--3-----7-----4\1-2-3-4-|
       .  .     .  .     .     . . . . .

Breakdown:  x2
C |------------------------------------------|
G |------------------------------------------|
E |------------------------------------------|
B |-------------------------2/4--------------|
F#|-0-----------------4-----2/4-0-----6----1-|
B |-0-----4-4-4-4-4-4-4---------0-----6----1-|
          . . . . . .

Under solo:  x6
C |-------------------------------------------------|
G |-------------------------------------------------|
E |-------------------------------------------------|
B |--------------------------------2/4--------------|
F#|-0------------------------4-----2/4-0-----6----1-|
B |-0----/15~~---4-4-4-4-4-4-4---------0-----6----1-|
                 . . . . . .

 x16
C |-----------|
G |-----------|
E |-----------|
B |-----------|
F#|-4-1-1-2-3-|
B |-4-1-1-2-3-|
    . . . . .

Mick:              James:
C |-----------|    |-------------|
G |-----------|    |-------------|
E |-----------|    |-11\8-8-9-10-|
B |-----------| x8 |-x--x-x-x-x--|
F#|-4\1-1-2-3-|    |-9-\6-6-7-8--|
B |-4\1-1-2-3-|    |-------------|

Chorus:
C |---------------------------------------------------------------------------------------|
G |---------------------------------------------------------------------------------------|
E |---------------------------------------------------------------------------------------|
B |-----7---7-------3----------3---3/5\3-------7---7-------3-------------------13--13--13-|
F#|-8---7---7---1---3---1------------------8---7---7---1---3---1---5---3---3\\-13--13--13-|
B |-8-------7---1-------1---3--------------8-------7---1-------1---5---3---3\\------------|
                .   .   .                              .   .   .

C |-----------------------------------------------------------------------------------------|
G |-----------------------------------------------------------------------------------------|
E |-----------------------------------------------------------------------------------------|
B |-----7---7-------3----------3---3/7---------7---7-------3-------------------13---13---13-|
F#|-8---7---7---1---3---1------------------8---7---7---1---3---1---5---3---3\\-13---13---13-|
B |-8-------7---1-------1---3--------------8-------7---1-------1---5---3---3\\--------------|
                .   .   .
C |---------------------------------------------------------------------------------------|
G |---------------------------------------------------------------------------------------|
E |---------------------------------------------------------------------------------------|
B |-----7---7-------3----------3---3/5\3-------7---7-------3-------------------13--13--13-|
F#|-8---7---7---1---3---1------------------8---7---7---1---3---1---5---3---5\\-13--13--13-|
B |-8-------7---1-------1---3--------------8-------7---1-------1---5---3---5\\------------|
                .   .   .                              .   .   .

C |--------------------------------------------------------------|
G |--------------------------------------------------------------|
E |--------------------------------------------------------------|
B |-----7---7-------3----------3---3/7---------7---7-------3-----|
F#|-8---7---7---1---3---1------------------8---7---7---1---3---1-|
B |-8-------7---1-------1---3--------------8-------7---1-------1-|
                .   .   .                              .   .   .

Ending:
C |--------------------------------------|
G |--------------------------------------|
E |--------------------------------------|
B |-4--------5--------8-----8------------|
F#|-2--3--2--3--3--3--6--7--6--4-1-1-2-3-|
B |----3--2-----3--3-----7-----4-1-1-2-3-|
       .  .     .  .     .     . . . . .

   x8
C |-----------|
G |-----------|
E |-----------|
B |-----------|
F#|-0-0-1-2-3-|
B |-0-0-1-2-3-|
    . . . .

Mick:              James:
C |-----------|    |-------------|
G |-----------|    |-------------|
E |-----------|    |-11\8-8-9-10-|
B |-----------| x8 |-x--x-x-x-x--|
F#|-4\1-1-2-3-|    |-9-\6-6-7-8--|
B |-4\1-1-2-3-|    |-------------|


  x8
C |-----------|
G |-----------|
E |-----------|
B |-----------|
F#|-0-0-1-2/3-|
B |-0-0-1-2/3-|
    . . . .

  x6
C |-----------|
G |-----------|
E |-----------|
B |-----------|
F#|-0-0-1-2-3-|
B |-0-0-1-2-3-|

C |------------------------|
G |------------------------|
E |------------------------|
B |------------------------|
F#|-0-0-1-2-3-0-0-1--2-3-4-|
B |-0-0-1-2-3-0-0-1--2-3-4-|
    . . . . . . . .  . . .

END
==============================================================================
==============================================================================
Slipknot - Gehenna
Tab: Billybusa (me)
Tuning: Drop A

Guitar 1:
C#||------------------------------------|--------------------------|
G#||------------------------------------|--------------------------|
E ||------------------------------------|--------------------------| x2
B ||------------------------------------|--------3-----------2-----|
F#||------------------------------------|-----3-----3-----2-----2--|
B ||--/19--18--18--18S--10--11--11S--3--|--------------2-----------|

||------------------------------------|--------------------------|
||------------------------------------|--------------------------|
||------------------------------------|--------------------------|
||------------------------------------|--------3-----------2-----|
||------------------------------------|-----3-----3-----2-----2--|
||--/19--18--18--18S--10--11--11S--3--|--------------2-----------|
|
|Guitar 2:                                                     x2
|------------------------------------|--------------------------|
|------------------------------------|--------------------------|
|------------------------------------|--------------------------|
|--/19--18--18--18S--10--11--11S--3--|--------3-----------2-----|
|------------------------------------|-----3-----3-----2-----2--|
|--/19--18--18--18S--10--11--11S--3--|--------------2-----------|

Guitar 1 & 2:
|------------------------------------|--------------------------|
|------------------------------------|--------------------------|
|------------------------------------|--------------------------|
|--/19--18--18--18S--10--11--11S--3--|--------3-----------2-----| x4
|--/19--18--18--18S--10--11--11S--3--|-----3-----3-----2-----2--|
|--/19--18--18--18S--10--11--11S--3--|--------------2-----------|

|-------------------|
|-------------------|
|-------------------|
|-------------------| Hold for a long time
|--0~---------------|
|--0~---------------|

Guitar 1 & 2:
|------------------------------------|--------------------------|
|------------------------------------|--------------------------|
|------------------------------------|--------------------------|
|--/19--18--18--18S--10--11--11S--3--|--------3-----------2-----| x4
|--------------------10--11--11S--3--|-----3-----3-----2-----2--|
|--/19--18--18--18S--10--11--11S--3--|--------------2-----------|


Guitar 1:
|-------------------|--------------------|-------------------|
|-------------------|--------------------|-------------------|
|-------------------|--------------------|-------------------|
|-------------------|--------------------|-------------------|
|--0----------------|--9--------8--------|--0----------------|
|--0----------------|--------------------|--0----------------|
|
|Guitar 2:

|-------------------|--------------------|-------------------|
|-------------------|--------------------|-------------------|
|-------------------|--------------------|-------------------|
|-------------------|--------------------|-------------------|
|--0----------------|--0--------0--------|--0----------------|
|--0----------------|--1--------0--------|--0----------------|

|---------------------||
|---------------------||
|---------------------||
|---------------------||
|--9--------12--------||
|---------------------||
|
|--------------------||
|--------------------||
|--------------------||
|--------------------||
|--0--------0--------||
|--0--------1--------||

Guitar 1:
|---------------------------------------------------|--------------------|
|---------------------------------------------------|--------------------|
|--5/--14-14-14-14-14-14-14-14-14-14-14-14-14\------|--------------------|
|---------------------------------------------------|--------------------|
|--3/--12-12-12-12-12-12-12-12-12-12-12-12-12\------|--9--------8--------|
|---------------------------------------------------|--------------------|
|
|Guitar 2:
|---------------------------------------------------|--------------------|
|---------------------------------------------------|--------------------|
|---------------------------------------------------|--------------------|
|-------3--3--3--3--3--3--3--3--3--3--3--3--3\------|--------------------|
|-------3--3--3--3--3--3--3--3--3--3--3--3--3\------|--0--------0--------|
|-------3--3--3--3--3--3--3--3--3--3--3--3--3\------|--1--------0--------|

Guitar 1:
|---------------------------------------------------|--------------------|
|---------------------------------------------------|--------------------|
|--5/--14-14-14-14-14-14-14-14-14-14-14-14-14\------|--------------------|
|---------------------------------------------------|--------------------|
|--3/--12-12-12-12-12-12-12-12-12-12-12-12-12\------|--9--------12-------|
|---------------------------------------------------|--------------------|
|
|Guitar 2:
|---------------------------------------------------|--------------------|
|---------------------------------------------------|--------------------|
|---------------------------------------------------|--------------------|
|-------3--3--3--3--3--3--3--3--3--3--3--3--3\------|--------------------|
|-------3--3--3--3--3--3--3--3--3--3--3--3--3\------|--0--------0--------|
|-------3--3--3--3--3--3--3--3--3--3--3--3--3\------|--0--------1--------|

Guitar 1:
|---------------------------------------------------|--------------------|
|---------------------------------------------------|--------------------|
|--5/--14-14-14-14-14-14-14-14-14-14-14-14-14\------|--------------------|
|---------------------------------------------------|--------------------|
|--3/--12-12-12-12-12-12-12-12-12-12-12-12-12\------|--9--------8--------|
|---------------------------------------------------|--------------------|
|
|Guitar 2:
|---------------------------------------------------|--------------------|
|---------------------------------------------------|--------------------|
|---------------------------------------------------|--------------------|
|-------3--3--3--3--3--3--3--3--3--3--3--3--3\------|--------------------|
|-------3--3--3--3--3--3--3--3--3--3--3--3--3\------|--0--------0--------|
|-------3--3--3--3--3--3--3--3--3--3--3--3--3\------|--1--------0--------|

Guitar 1:


|---------------------------------------------------------------------|
|---------------------------------------------------------------------|
|--5/--16-16-16-16-16-16-16-16-16-16-16-16-16-16-16-16-16-16-16-16-16-|
|---------------------------------------------------------------------|
|--3/--14-14-14-14-14-14-14-14-14-14-14-14-14-14-14-14-14-14-14-14-14-|
|---------------------------------------------------------------------|
|
|Guitar 2:
|---------------------------------------------------------------------|
|---------------------------------------------------------------------|
|---------------------------------------------------------------------|
|-------3--3--3--3--3--3--3--3--3--3--3--3--3--3--3--3--3--3--3--3--3-|
|-------3--3--3--3--3--3--3--3--3--3--3--3--3--3--3--3--3--3--3--3--3-|
|-------3--3--3--3--3--3--3--3--3--3--3--3--3--3--3--3--3--3--3--3--3-|

Guitar 1:
|-----------------------------------------------------------------------|
|-----------------------------------------------------------------------|
|--16-16-16-16-16-16-16-16-16-16-16-16-16-16-16-16-16-16-16-16-16-16-16-|
|-----------------------------------------------------------------------|
|--16-14-14-14-14-14-14-14-14-14-14-14-14-14-14-14-14-14-14-14-14-14-14-|
|-----------------------------------------------------------------------|
|
|Guitar 2:
|----------------------------------------------------------------------|
|----------------------------------------------------------------------|
|----------------------------------------------------------------------|
|--3--3--3--3--3--3--3--3--3--3--3--3--3--3--3--3--3--3--3--3--3--3--3-|
|--3--3--3--3--3--3--3--3--3--3--3--3--3--3--3--3--3--3--3--3--3--3--3-|
|--3--3--3--3--3--3--3--3--3--3--3--3--3--3--3--3--3--3--3--3--3--3--3-|

Pre Chorus:

Guitar 1 & 2:
------------------------|-------------------------|------------------------|
------------------------|-------------------------|------------------------|
------------------------|-------------------------|------------------------|
--5----5----5--5--5--8--|-----8--8--2----2--2--2--|--5--5--5--5--5--5--5--5|
--5----5----5--5--5--8--|-----8--8--2----2--2--2--|--5--5--5--5--5--5--5--5|
--5----5----5--5--5--8--|-----8--8--2----2--2--2--|--5--5--5--5--5--5--5--5|

--------------------------|
--------------------------|
--------------10-10-10-9--|
--8--8--8--8--------------|
--8--8--8--8--8--8--8--7--|
--8--8--8--8--------------|

Chorus:
------------------------------|--------------------------|
------------------------------|--------------------------|
-------14--14--14-------------|--------------------------|
--0----------------10--0--10--|-----10--10--5----3----5--|
--0----12--12--12--10--0--10--|-----10--10--5----3----5--|
--0----------------10--0--10--|-----10--10--5----3----5--|
                                                        x4
------------------------|-------------------------||
------------------------|-------------------------||
------------------------|-------------------------||
------------------------|-------------------------||
--2----2----2--2--2--5--|-----5--5--8----8--8--8--||
--2----2----2--2--2--5--|-----5--5--8----8--8--8--||

Clean part before the solo:
-----------------------6--|--------------------------|
-----------10-----5--6----|--------10--------10------|
--------7-----7-----------|--9--7-----10--9-----9--7-|
--9--11-------------------|--------------------------|
--------------------------|--------------------------|
--------------------------|--------------------------|


--------------------------|
-10--------11--------10---|
-----10--9-----9--7-----9-|
--------------------------|
--------------------------|
--------------------------|

I haven’t figured out the solo yet sorry

|-------------------|
|-------------------|
|-------------------|
|-------------------|
|--0~---------------|
|--0~---------------|

Guitar 1 & 2:
-------------------|--------------------------|----------------------------|
-------------------|--------------------------|----------------------------|
-------------------|--------------------------|----------------------------|
-------------------|-----5--5--------------8--|----------------------------|
-------------------|--5--5--5--5--5--5--5--8--|--8--8--8--2--2--2--2--2----|
-------------------|--5--5--5--5--5--5--5--8--|--8--8--8--2--2--2--2--2----|
                      .        Pm-------->       Pm------------------------|

--------------------------|----------------------------|
--------------------------|----------------------------|
--------------------------|--------------10-10-10-9----|
--------------------------|----------------------------|
--5--5--5--5--5--5--5--8--|--8--8--8--8--8--8--8--7----|
--5--5--5--5--5--5--5--8--|--8--8--8--8----------------|
  Pm---------------------------------------------------|

--------------------------|----------------------------|
--------------------------|----------------------------|
--------------------------|----------------------------|
--------------------------|----------------------------|
--5--5--5--5--5--5--5--8--|--8--8--8--2--2--2--2--2----|
--5--5--5--5--5--5--5--8--|--8--8--8--2--2--2--2--2----|
Pm-----------------------------------------------------|

--------------------------|----------------------------|
--------------------------|----------------------------|
--------------------------|--------------10-10-10-9----|
--------------------------|----------------------------|
--5--5--5--5--5--5--5--8--|--8--8--8--8--8--8--8--7----|
--5--5--5--5--5--5--5--8--|--8--8--8--8----------------|
  Pm---------------------------------------------------|

Chorus:
------------------------------|--------------------------|
------------------------------|--------------------------|
-------14--14--14-------------|--------------------------|
--0----------------10--0--10--|-----10--10--5----3----5--|
--0----12--12--12--10--0--10--|-----10--10--5----3----5--|
--0----------------10--0--10--|-----10--10--5----3----5--|
                                                        x10
------------------------|-------------------------||
------------------------|-------------------------||
------------------------|-------------------------||
------------------------|-------------------------||
--2----2----2--2--2--5--|-----5--5--8----8--8--8--||
--2----2----2--2--2--5--|-----5--5--8----8--8--8--||

|-------------------|
|-------------------|
|-------------------|
|-------------------|
|--0~---------------|
|--0~---------------|

That’s it, again sorry for not tabbing out the solo and the lead part at the end

if I ever tab the solo I'll just add it to the tab


END
==============================================================================
==============================================================================
-------------------------------------------------------------------------------
			     "Gehenna" solo --- Slipknot
-------------------------------------------------------------------------------

Tabbed by: [travis]


Key:  F Major (F G A Bb C D E)


*Both of these solos are done by Jim Root.

*A key to playing like Jim Root is doing a lot
 of legato and being able to play 32nd notes.


Tuning: Drop A = A E A D F# B (low to high)

Legend:

... = palm mute
h = hammer on
p = pull off
b = bend
! = tremelo pick
* = pinch harmonic
.5 = half step bend
1 = whole step bend
1.5 = step and a half bend
/ = slide up
\ = slide down
h/ = pick once
p\ = pick once
~ = vibrato
__ = hold bend
() = note not picked / bring bent note back to normal

=====================================
First Solo:

Guitar 1: Tremelo pick while gradually bending the string up.
      _______________1.5_______________________
B |----------------------------------------------------------------------|
F#|----------------------------------------------------------------------|
D |-7!b----------------7!--------------7~~~~~~~(7)---7-----5h7~~~~~~~~~~-|
A |----------------------------------------------------------------------|
E |----------------------------------------------------------------------|
A |----------------------------------------------------------------------|


Guitar 1:
B |----------------------------------------------------------------------------------------------|
F#|----------------------------------------------10h13h/15-13p12h13p12p11p10---------------------|
D |-------------------------------------9h10p9h10---------------------------10h12p10-9-----------|
A |10h12p10p9-10-10p9h10p9h10h12p10p9-11----------------------------------------------12p10h12h13|
E |----------------------------------------------------------------------------------------------|
A |----------------------------------------------------------------------------------------------|


Guitar 1:

                                    1___                               1____
B |-12h13p12-13p12-13p12-13p12--12-----------------------------------------------------------|
F#|---------------------------15--15b---(15)p13~~~~13h15p12h13p12--12------------------------|
D |--------------------------------------------------------------14--14b----(14)-12h14~~~~~~~|
A |------------------------------------------------------------------------------------------|
E |------------------------------------------------------------------------------------------|
A |------------------------------------------------------------------------------------------|


Guitar 1:
B |---------------12h13p12-13h15h/17p\15p13p12-13p12--12--------12h13p12-----------12h13p12-|
F#|-------12h13p12----------------------------------12--15p13p12--------15-13p12h13---------|
D |-/12-12----------------------------------------------------------------------------------|
A |-----------------------------------------------------------------------------------------|
E |-----------------------------------------------------------------------------------------|
A |-----------------------------------------------------------------------------------------|


Guitar 1:
B |-----------------------------------------------------------------------------------|
F#|-15p13p12-----12h13p12-10----------------------------------------------------------|
D |---------14p12-----------12-10h12p10p\9h10p9-------9h10p9-12-9-10-10h/14~~~~~~~~~~-|
A |--------------------------------------------10-10p9--------------------------------|
E |-----------------------------------------------------------------------------------|
A |-----------------------------------------------------------------------------------|


Guitar 1:
B |---------------------------------------------------------------------12h/15-|
F#|---------------------------------------------15h/18p17-17p15-15p13~~~-------|
D |----------------------------------------------------------------------------|
A |----------------------------------------------------------------------------|
E |-19-20-19-20h/22p\20-19-20-19h20p19-17h19-20--------------------------------|
A |----------------------------------------------------------------------------|


Guitar 1:
B |-15-13-13-12-12h13p12---------------------------------17---------------------------------|
F#|----------------------15-----17-------20~~~~-17-------------20------17-------18p17-------|
D |-------------------------17*----17--------------17---------------------17----------17----|
A |-----------------------------------19--------------19----19------19-------19----------19-|
E |-----------------------------------------------------------------------------------------|
A |-----------------------------------------------------------------------------------------|


Guitar 1:
B |-19-------------19----19----19--------19----19--------19--------------------|
F#|-------------------18----20----20h/22----20-----------------17p16p15~~~~~~~~|
D |-----17--19h/21--------------------------------21p\19----19-----------------|
A |----------------------------------------------------------------------------|
E |----------------------------------------------------------------------------|
A |----------------------------------------------------------------------------|

End of First Solo.
======================================
Second Guitar Solo:

Guitar 1:
B |17-------------------------------------------------------------------------------------------|
F#|---17-17p\15h/17p\15-------------------------------------------------------------------------|
D |--------------------14h15p14h15p14h15p14h15p14h15--------------------------------------------|
A |-------------------------------------------------14h15p14h15p14h15p14h15p14h15p14h15p14h15p14|
E |---------------------------------------------------------------------------------------------|
A |---------------------------------------------------------------------------------------------|

Guitar 1:
B |-----17----------------------------------------------------------------------------------|
F#|--------17-17p\15h/17p\15----------------------------------------17----17----17----17----|
D |-/14---------------------14h15p14h15p14h15p14h15p14h15-----------------------------------|
A |------------------------------------------------------14h15p14h15---15----15----15----15-|
E |-----------------------------------------------------------------------------------------|
A |-----------------------------------------------------------------------------------------|

Guitar 1:


B |----------/18-17-----------------------------------------------17h18-17h18-17h18-17h18-17h18-|
F#|-17h18p17--------17-17p\15h/17p\15-----------------------------------------------------------|
D |----------------------------------14h15p14h15p14h15-14h15-14h15------------------------------|
A |---------------------------------------------------------------------------------------------|
E |---------------------------------------------------------------------------------------------|
A |---------------------------------------------------------------------------------------------|

Guitar 1:
B |-17h18-17h18-17h18-17--------------------------------------------17h18-17h18-17h18-17h18-17h18-|
F#|----------------------17-17p\15h/17p\15--------------------------------------------------------|
D |---------------------------------------14h15p14h15p14h15p14h15p14------------------------------|
A |-----------------------------------------------------------------------------------------------|
E |-----------------------------------------------------------------------------------------------|
A |-----------------------------------------------------------------------------------------------|

Guitar 1:
B |-17h18-17h18-17h18-17p\12-12-10h12-10~~~~~~~~~~~14-------------14--------------14-------------|
F#|---------------------------------------------------18~~~~~~~~~~---18~~~~~~~~~~~---18~~~~~~~~~~|
D |----------------------------------------------------------------------------------------------|
A |----------------------------------------------------------------------------------------------|
E |----------------------------------------------------------------------------------------------|
A |----------------------------------------------------------------------------------------------|

That's It.
Please Rate and Comment.
[travis]

END

==============================================================================
==============================================================================
Slipknot - This Cold Black
Tuning: Drop A
Tabbed by: Billybusa/skinlabd1989

Sorry, no solo yet.

B ||--------------------------|----------------------------|
F#||--------------------------|----------------------------|
D ||--------------------------|----------------------------|
A ||--0--0--1--0--3--0--0--1--|--0--0--0--3--0--0--3--4----|
E ||--------------------------|----------------------------|
A ||--------------------------|----------------------------|
     Pm----------------------------------------------------|

--------------------------|----------------------------|
--------------------------|----------------------------|
--------------------------|----------------------------|
--0--0--1--0--3--0--0--1--|--0--0--0--3--0--0--3--4----|
--------------------------|----------------------------|
--------------------------|----------------------------|
Pm-----------------------------------------------------|

--------------------------|----------------------------|
--------------------------|----------------------------|
--------------------------|----------------------------|
--0--0--1--0--3--0--0--1--|--0--0--0--3--0--0--3--4----|
--------------------------|----------------------------|
--------------------------|----------------------------|
Pm-----------------------------------------------------|

--------------------------|----------------------------|
--------------------------|----------------------------|
--------------------------|----------------------------|
--0--0--1--0--3--0--0--1--|--0--0--0--3--0--0--3--4----|
--------------------------|----------------------------|
--------------------------|----------------------------|
Pm-----------------------------------------------------|

|---------------------------|----------------------------|
|---------------------------|----------------------------|
|*--------------------------|----------------------------|
|*--0--0--1--0--3--0--0--1--|--0--0--0--3--0--0--3--4----|
|---------------------------|----------------------------|
|---------------------------|----------------------------|
Pm-------------------------------------------------------|

--------------------------|----------------------------|
--------------------------|----------------------------|
--------------------------|----------------------------|
--0--0--1--0--3--0--0--1--|--0--0--0--3--0--0--3--4----|
--------------------------|----------------------------|
--------------------------|----------------------------|
Pm-----------------------------------------------------|

--------------------------|----------------------------|
--------------------------|----------------------------|
--------------------------|----------------------------|
--0--0--1--0--3--0--0--1--|--0--0--0--3--0--0--3--4----|
--------------------------|----------------------------|
--------------------------|----------------------------|
Pm-----------------------------------------------------|


--------------------------|------------------------------|
--------------------------|------------------------------|
--------------------------|--------------------------*---|
--0--0--1--0--3--0--0--1--|--0--0--0--3--0--0--3--4--*---|
--------------------------|------------------------------|
--------------------------|------------------------------|
Pm-------------------------------------------------------|

--------------------|----------------------------|------------------------|
--------------------|----------------------------|------------------------|
*-------------------|----------------------------|------------------------|
*-------------------|----------------------------|------------------------|
-------1----3----0--|--------------3p--1---------|--------1----3-------0--|
-0--0--1----3-0--0--|-----0--3--5---------4p--1--|--0--0--1----3----0--0--|
 .  .         .                                     .  .            .

----------------------------|------------------------|
----------------------------|------------------------|
----------------------------|------------------------|
----------------------------|------------------------|
--------------3p--1---------|--------1----3-------0--|
-----0--3--5---------4p--1--|--0--0--1----3----0--0--|
                               .  .            .

----------------------------|------------------------|
----------------------------|------------------------|
----------------------------|------------------------|
----------------------------|------------------------|
--------------3p--1---------|--------1----3-------0--|
-----0--3--5---------4p--1--|--0--0--1----3----0--0--|
                               .  .            .

-----------------------------||------------------------------|
-----------------------------||------------------------------|
----------------------------*||*-----------------------------|
----------------------------*||*-----------------------------|
--------------3p--1----------||---------6p--5----------------|
-----0--3--5---------4p--1---||---0--0---------0--0--0--0----|
                                  .  .         Pm------------|

----------------------------|-----------------------------|
----------------------------|-----------------------------|
----------------------------|-----------------------------|
----------------------------|-----------------------------|
-----8p--4------------5--4--|--------6p--5----------------|
--0---------8--7h--8--------|--0--0---------0--0--0--0----|
  .         .                  .  .         Pm------------|

-----------------------------|-----------------------------|
-----------------------------|-----------------------------|
-----------------------------|-----------------------------|
-----------------------------|-----------------------------|
-----8p--4------------5p--4--|--------6p--5----------------|
--0---------8--7h--8---------|--0--0---------0--0--0--0----|
  .         .                   .  .         Pm------------|

-----------------------------|-----------------------------|
-----------------------------|-----------------------------|
-----------------------------|-----------------------------|
-----------------------------|-----------------------------|
-----8p--4------------5p--4--|--------6p--5----------------|
--0---------8--7h--8---------|--0--0---------0--0--0--0----|
  .         .                   .  .         Pm------------|

------------------------------||----------------------------|
------------------------------||----------------------------|
-----------------------------*||----------------------------|
-----------------------------*||----------------------------|
-----8p--4------------5p--4---||--0--0--1--0--3--0--0--1----|
--0---------8--7h--8----------||--0--0--1--0--3--0--0--1----|
  .         .                     Pm------------------------|

--------------------------|----------------------------|
--------------------------|----------------------------|
--------------------------|----------------------------|
--------------------------|----------------------------|
--0--0--0--3--0--0--3--4--|--0--0--1--0--3--0--0--1----|
--0--0--0--3--0--0--3--4--|--0--0--1--0--3--0--0--1----|
Pm-----------------------------------------------------|

--------------------------|----------------------------|
--------------------------|----------------------------|
--------------------------|----------------------------|
--------------------------|----------------------------|
--0--0--0--3--0--0--3--4--|--0--0--1--0--3--0--0--1----|
--0--0--0--3--0--0--3--4--|--0--0--1--0--3--0--0--1----|
Pm-----------------------------------------------------|

--------------------------|----------------------------|
--------------------------|----------------------------|
--------------------------|----------------------------|
--------------------------|----------------------------|
--0--0--0--3--0--0--3--4--|--0--0--1--0--3--0--0--1----|
--0--0--0--3--0--0--3--4--|--0--0--1--0--3--0--0--1----|
Pm-----------------------------------------------------|

--------------------------|-----------------------------|
--------------------------|-----------------------------|
--------------------------|-----------------------------|
--------------------------|-----------------------------|
--0--0--0--3--0--0--3--4--|--------6p--5----------------|
--0--0--0--3--0--0--3--4--|--0--0-----------------------|
 Pm-----------------------------------------------------|

----------------------------|---------------------------|
----------------------------|---------------------------|
----------------------------|---------------------------|
----------------------------|---------------------------|
--------5p--4--------4p--3--|--------6p--5--------------|
-----0------------0---------|--0--0---------------------|
     .            .            .  .

----------------------------|---------------------------|
----------------------------|---------------------------|
----------------------------|---------------------------|
----------------------------|---------------------------|
--------5p--4--------4p--3--|--------6p--5--------------|
-----0------------0---------|--0--0---------------------|
     .            .            .  .

----------------------------|---------------------------|
----------------------------|---------------------------|
----------------------------|---------------------------|
----------------------------|---------------------------|
--------5p--4--------4p--3--|--------6p--5--------------|
-----0------------0---------|--0--0---------------------|
     .            .            .  .

----------------------------|-----------------------------|
----------------------------|-----------------------------|
----------------------------|-----------------------------|
----------------------------|-----------------------------|
--------5p--4--------4p--3--|--------6p--5----------------|
-----0------------0---------|--0--0---------0--0--0--0----|
     .            .            .  .         Pm------------|

------------------------------|-----------------------------|
------------------------------|-----------------------------|
------------------------------|-----------------------------|
------------------------------|-----------------------------|
--------5p--4----------4p--3--|--------6p--5----------------|
--0--0---------(0)--0---------|--0--0---------0--0--0--0----|
  .  .          .   .            .  .         Pm------------|

------------------------------|-----------------------------|
------------------------------|-----------------------------|
------------------------------|-----------------------------|
------------------------------|-----------------------------|
--------5p--4----------4p--3--|--------6p--5----------------|
--0--0---------(0)--0---------|--0--0---------0--0--0--0----|
  .  .          .   .            .  .         Pm------------|

------------------------------|-----------------------------|
------------------------------|-----------------------------|
------------------------------|-----------------------------|
------------------------------|-----------------------------|
--------5p--4----------4p--3--|--------6p--5----------------|
--0--0---------(0)--0---------|--0--0---------0--0--0--0----|
  .  .          .   .            .  .         Pm------------|

---------------------------|-----------------------|-----------------------|
---------------------------|-----------------------|-----------------------|
---------------------------|-----------------------|-----------------------|
---------------------------|--6----6-------6-------|--6----6-------6-------|
-----5p--4----------4p--3--|--5----5-------5-------|--5----5-------5-------|
--0--0------(0)--0---------|-----------0-------0---|------------0-------0--|
  .  .       .   .                     .       .                .       .

------------------------|-------------------------|-----------------------|
------------------------|-------------------------|-----------------------|
------------------------|-------------------------|-----------------------|
------------------------|-------------------------|--6----6-------6-------|
--3--3----3--5--5----5--|--6--6----6--1--1--------|--5----5-------5-------|
--3--3----3--5--5----5--|--6--6----6--1--1--------|------------0----------|
                                                               .

-----------------------|-----------------------|-----------------------|
-----------------------|-----------------------|-----------------------|
-----------------------|-----------------------|-----------------------|
--6----6-------6-------|-----------------------|-----------------------|
--5----5-------5-------|--2------2-------------|--3------3-------------|
------------0-------0--|--2------2----0--0--0--|--3------3----0--0--0--|
                                      .  .  .                 .  .  .

-----------------------|-----------------------|------------------------|
-----------------------|-----------------------|------------------------|
-----------------------|-----------------------|------------------------|
--6----6-------6-------|--6----6-------6-------|------------------------|
--5----5-------5-------|--5----5-------5-------|--3--3----3--5--5----5--|
------------0-------0--|------------0-------0--|--3--3----3--5--5----5--|
            .       .               .       .

-------------------------|-----------------------|-----------------------|
-------------------------|-----------------------|-----------------------|
-------------------------|-----------------------|-----------------------|
-------------------------|--6----6-------6-------|--6----6-------6-------|
--6--6----6--1--1--------|--5----5-------5-------|--5----5-------5-------|
--6--6----6--1--1--------|------------0----------|------------0-------0--|
                                      .

-----------------------|-----------------------|----------------------------|
-----------------------|-----------------------|----------------------------|
-----------------------|-----------------------|----------------------------|
-----------------------|-----------------------|----------------------------|
--2------2-------------|--5------5-------------|--0--0--1--0--3--0--0--1----|
--2------2----0--0--0--|--5------5----0--0--0--|--0--0--1--0--3--0--0--1----|
              .  .  .                 .  .  .     Pm------------------------|

--------------------------|----------------------------|
--------------------------|----------------------------|
--------------------------|----------------------------|
--------------------------|----------------------------|
--0--0--0--3--0--0--3--4--|--0--0--1--0--3--0--0--1----|
--0--0--0--3--0--0--3--4--|--0--0--1--0--3--0--0--1----|
Pm-----------------------------------------------------|

--------------------------|----------------------------|
--------------------------|----------------------------|
--------------------------|----------------------------|
--------------------------|----------------------------|
--0--0--0--3--0--0--3--4--|--0--0--1--0--3--0--0--1----|
--0--0--0--3--0--0--3--4--|--0--0--1--0--3--0--0--1----|
Pm-----------------------------------------------------|

--------------------------|----------------------------|
--------------------------|----------------------------|
--------------------------|----------------------------|
--------------------------|----------------------------|
--0--0--0--3--0--0--3--4--|--0--0--1--0--3--0--0--1----|
--0--0--0--3--0--0--3--4--|--0--0--1--0--3--0--0--1----|
Pm-----------------------------------------------------|

--------------------------|------------------------|---------------------------|
--------------------------|------------------------|---------------------------|
--------------------------|------------------------|---------------------------|
--------------------------|------------------------|---------------------------|
--0--0--0--3--0--0--3--4--|--------1----3-------0--|-----------3-------3--4----|
--0--0--0--3--0--0--3--4--|--0--0--1----3----0--0--|-----0--0--3----0--3--4----|
Pm----------------------------->             .           . --------------------|       .

---------------------------|----------------------------|
---------------------------|----------------------------|
---------------------------|----------------------------|
---------------------------|----------------------------|
--------6p--5--------------|-----8p--4------------5--4--|
--0--0---------0--0--0--0--|--0---------8--7h--8--------|
  .  .         .  .  .  .     .         .

---------------------|-------------------------|---------------------------|
---------------------|-------------------------|---------------------------|
---------------------|-------------------------|---------------------------|
---------------------|-------------------------|---------------------------|
------1---3------0---|-----------3-------3--4--|--------6p--5--------------|
0--0--1---3---0--0---|-----0--0--3----0--3--4--|--0--0---------0--0--0--0--|
.  .          .            .  .       .           .  .         .  .  .  .

-------------------------|------------------------|-------------------------|
-------------------------|------------------------|-------------------------|
-------------------------|------------------------|-------------------------|
-------------------------|------------------------|-------------------------|
--8p--4------------5--4--|--------1----3-------0--|-----------3-------3--4--|
0--------8--7h--8--------|--0--0--1----3----0--0--|-----0--0--3----0--3--4--|
.        .                  .  .            .           .  .       .

---------------------------|----------------------------|
---------------------------|----------------------------|
---------------------------|----------------------------|
---------------------------|----------------------------|
--------6p--5--------------|-----8p--4------------5--4--|
--0--0---------0--0--0--0--|--0---------8--7h--8--------|
  .  .         .  .  .  .     .         .

----------------------|-------------------------|---------------------------|
----------------------|-------------------------|---------------------------|
----------------------|-------------------------|---------------------------|
----------------------|-------------------------|---------------------------|
------1----3-------0--|-----------3-------3--4--|--------6p--5--------------|
0--0--1----3----0--0--|-----0--0--3----0--3--4--|--0--0---------0--0--0--0--|
.  .            .           .  .       .           .  .         .  .  .  .

----------------------------|---------------------------|
----------------------------|---------------------------|
----------------------------|---------------------------|
----------------------------|---------------------------|
-----8p--4------------5--4--|--------6p--5--------------|
--0---------8--7h--8--------|--0--0---------0--0--0--0--|
  .         .                  .  .         .  .  .  .

----------------------------|---------------------------|
----------------------------|---------------------------|
----------------------------|---------------------------|
----------------------------|---------------------------|
-----8p--4------------5--4--|--------6p--5--------------|
--0---------8--7h--8--------|--0--0---------0--0--0--0--|
  .         .                  .  .         .  .  .  .

----------------------------|---------------------------|
----------------------------|---------------------------|
----------------------------|---------------------------|
----------------------------|---------------------------|
-----8p--4------------5--4--|--------6p--5--------------|
--0---------8--7h--8--------|--0--0---------0--0--0--0--|
  .         .                  .  .         .  .  .  .

----------------------------|-----------------------|-----------------------|
----------------------------|-----------------------|-----------------------|
----------------------------|-----------------------|-----------------------|
----------------------------|--6----6-------6-------|--6----6-------6-------|
-----8p--4------------5--4--|--5----5-------5-------|--5----5-------5-------|
--0---------8--7h--8--------|------------0-------0--|------------0-------0--|
  .         .                            .       .               .       .

------------------------|-------------------------|-----------------------|
------------------------|-------------------------|-----------------------|
------------------------|-------------------------|-----------------------|
------------------------|-------------------------|--6----6-------6-------|
--3--3----3--5--5----5--|--6--6----6--1--1--------|--5----5-------5-------|
--3--3----3--5--5----5--|--6--6----6--1--1--------|------------0----------|
                                                               .

-----------------------|-----------------------|-----------------------|
-----------------------|-----------------------|-----------------------|
-----------------------|-----------------------|-----------------------|
--6----6-------6-------|-----------------------|-----------------------|
--5----5-------5-------|--2------2-------------|--3------3-------------|
------------0-------0--|--2------2----0--0--0--|--3------3----0--0--0--|
                                      .  .  .                 .  .  .

-----------------------|-----------------------|------------------------|
-----------------------|-----------------------|------------------------|
-----------------------|-----------------------|------------------------|
--6----6-------6-------|--6----6-------6-------|------------------------|
--5----5-------5-------|--5----5-------5-------|--3--3----3--5--5----5--|
------------0-------0--|------------0-------0--|--3--3----3--5--5----5--|
            .       .               .       .

-------------------------|-----------------------|-----------------------|
-------------------------|-----------------------|-----------------------|
-------------------------|-----------------------|-----------------------|
-------------------------|--6----6-------6-------|--6----6-------6-------|
--6--6----6--1--1--------|--5----5-------5-------|--5----5-------5-------|
--6--6----6--1--1--------|------------0----------|------------0-------0--|
                                      .

-----------------------|-----------------------|----------------------------|
-----------------------|-----------------------|----------------------------|
-----------------------|-----------------------|----------------------------|
-----------------------|-----------------------|----------------------------|
--2------2-------------|--5------5-------------|--0--0--1--0--3--0--0--1----|
--2------2----0--0--0--|--5------5----0--0--0--|--0--0--1--0--3--0--0--1----|
              .  .  .                 .  .  .     Pm------------------------|

--------------------------|----------------------------|
--------------------------|----------------------------|
--------------------------|----------------------------|
--------------------------|----------------------------|
--0--0--0--3--0--0--3--4--|--0--0--1--0--3--0--0--1----|
--0--0--0--3--0--0--3--4--|--0--0--1--0--3--0--0--1----|
Pm-----------------------------------------------------|

--------------------------|----------------------------|
--------------------------|----------------------------|
--------------------------|----------------------------|
--------------------------|----------------------------|
--0--0--0--3--0--0--3--4--|--0--0--1--0--3--0--0--1----|
--0--0--0--3--0--0--3--4--|--0--0--1--0--3--0--0--1----|
Pm-----------------------------------------------------|

--------------------------|----------------------------|
--------------------------|----------------------------|
--------------------------|----------------------------|
--------------------------|----------------------------|
--0--0--0--3--0--0--3--4--|--0--0--1--0--3--0--0--1----|
--0--0--0--3--0--0--3--4--|--0--0--1--0--3--0--0--1----|
Pm-----------------------------------------------------|

--------------------------|-------------------------|---------------------------|
--------------------------|-------------------------|---------------------------|
--------------------------|-------------------------|---------------------------|
--------------------------|-------------------------|---------------------------|
--0--0--0--3--0--0--3--4--|--6----6--6--6--6--6--6--|--3----3--3--3--3--3--3----|
--0--0--0--3--0--0--3--4--|--6----6--6--6--6--6--6--|--3----3--3--3--3--3--3----|
Pm--------------------->         Pm--------------->          Pm-----------------|

--------------------------|--------------------------|---------------------------|
--------------------------|--------------------------|---------------------------|
--------------------------|--------------------------|---------------------------|
--------------------------|--------------------------|---------------------------|
--0--0--1--0--3--0--0--1--|--0--0--0--3--0--0--3--4--|--6----6--6--6--6--6--6----|
--0--0--1--0--3--0--0--1--|--0--0--0--3--0--0--3--4--|--6----6--6--6--6--6--6----|
Pm------------------------------------------------>          Pm------------------|

-------------------------|--------------------------|----------------------------|
-------------------------|--------------------------|----------------------------|
-------------------------|--------------------------|----------------------------|
-------------------------|--------------------------|----------------------------|
--3----3--3--3--3--3--3--|--0--0--1--0--3--0--0--1--|--0--0--0--3--0--0--3--4----|
--3----3--3--3--3--3--3--|--0--0--1--0--3--0--0--1--|--0--0--0--3--0--0--3--4----|
       Pm------------------------------------------------------------------------|

--------------------------|--------------------------|--------------------------|
--------------------------|--------------------------|--------------------------|
--------------------------|--------------------------|--------------------------|
--------------------------|--------------------------|--------------------------|
--0--0--1--0--3--0--0--1--|--0--0--0--3--0--0--3--4--|--------------------------|
--0--0--1--0--3--0--0--1--|--0--0--0--3--0--0--3--4--|--3--3--2--2--6----5------|
Pm------------------------------------------------------------------------------|

-------------------------|------------------------|---------------------------|
-------------------------|------------------------|---------------------------|
-------------------------|------------------------|---------------------------|
-------------------------|------------------------|---------------------------|
-------------------------|------------------------|---------------------------|
--0----2--2--3--3--2--2--|--3--3--2--2--6----5----|--0----2--2--3--3--2--2----|
Pm----------------------------------------------------------------------------|

------------------------|-------------------------|----------------------------|
------------------------|-------------------------|----------------------------|
------------------------|-------------------------|----------------------------|
------------------------|-------------------------|----------------------------|
------------------------|-------------------------|----------------------------|
--3--3--2--2--6----5----|--0----2--2--3--3--2--2--|--3--3--2--2--6--6--5--5----|
Pm-----------------------------------------------------------------------------|

--------------------------|----------------------|------------------------|
--------------------------|----------------------|------------------------|
--------------------------|----------------------|------------------------|
--------------------------|----------------------|------------------------|
--------------------------|--3----2----6----5----|--0----2----3----2------|
--0--0--2--2--3--3--2--2--|--3----2----6----5----|--0----2----3----2------|
  Pm----------------------------------------------------------------------|

----------------------|----------------------|----------------------|
----------------------|----------------------|----------------------|
----------------------|----------------------|----------------------|
----------------------|----------------------|----------------------|
--3----2----6----5----|--0----2----3----2----|--3----2----6----5----|
--3----2----6----5----|--0----2----3----2----|--3----2----6----5----|

----------------------|----------------------|----------------------|
----------------------|----------------------|----------------------|
----------------------|----------------------|----------------------|
----------------------|----------------------|----------------------|
--0----2----3----2----|--3----2----6----5----|--0----2----3----2----|
--0----2----3----2----|--3----2----6----5----|--0----2----3----2----|

-----------------------|-----------------------|------------------------|
-----------------------|-----------------------|------------------------|
-----------------------|-----------------------|------------------------|
--6----6-------6-------|--6----6-------6-------|------------------------|
--5----5-------5-------|--5----5-------5-------|--3--3----3--5--5----5--|
------------0-------0--|------------0-------0--|--3--3----3--5--5----5--|
            .       .               .       .

-------------------------|-----------------------|-----------------------|
-------------------------|-----------------------|-----------------------|
-------------------------|-----------------------|-----------------------|
-------------------------|--6----6-------6-------|--6----6-------6-------|
--6--6----6--1--1--------|--5----5-------5-------|--5----5-------5-------|
--6--6----6--1--1--------|------------0----------|------------0-------0--|
                                      .

-----------------------|-----------------------|-----------------------|
-----------------------|-----------------------|-----------------------|
-----------------------|-----------------------|-----------------------|
-----------------------|-----------------------|--6----6-------6-------|
--2------2-------------|--3------3-------------|--5----5-------5-------|
--2------2----0--0--0--|--3------3----0--0--0--|------------0-------0--|
              .  .  .                 .  .  .               .       .

-----------------------|------------------------|-------------------------|
-----------------------|------------------------|-------------------------|
-----------------------|------------------------|-------------------------|
--6----6-------6-------|------------------------|-------------------------|
--5----5-------5-------|--3--3----3--5--5----5--|--6--6----6--1--1--------|
------------0-------0--|--3--3----3--5--5----5--|--6--6----6--1--1--------|
            .       .

-----------------------|-----------------------|-----------------------|
-----------------------|-----------------------|-----------------------|
-----------------------|-----------------------|-----------------------|
--6----6-------6-------|--6----6-------6-------|-----------------------|
--5----5-------5-------|--5----5-------5-------|--2------2-------------|
------------0----------|------------0-------0--|--2------2----0--0--0--|
            .                                                 .  .  .

-----------------------|-----------------------|-----------------------|
-----------------------|-----------------------|-----------------------|
-----------------------|-----------------------|-----------------------|
-----------------------|--6----6-------6-------|--6----6-------6-------|
--5------5-------------|--5----5-------5-------|--5----5-------5-------|
--5------5----0--0--0--|------------0-------0--|------------0-------0--|
              .  .  .               .       .               .       .

------------------------|-------------------------|-----------------------|
------------------------|-------------------------|-----------------------|
------------------------|-------------------------|-----------------------|
------------------------|-------------------------|--6----6-------6-------|
--3--3----3--5--5----5--|--6--6----6--1--1--------|--5----5-------5-------|
--3--3----3--5--5----5--|--6--6----6--1--1--------|------------0----------|
                                                               .



-----------------------|-----------------------|-----------------------|
-----------------------|-----------------------|-----------------------|
-----------------------|-----------------------|-----------------------|
--6----6-------6-------|-----------------------|-----------------------|
--5----5-------5-------|--2------2-------------|--3------3-------------|
------------0-------0--|--2------2----0--0--0--|--3------3----0--0--0--|
                                      .  .  .                 .  .  .

-----------------------|-----------------------|------------------------|
-----------------------|-----------------------|------------------------|
-----------------------|-----------------------|------------------------|
--6----6-------6-------|--6----6-------6-------|------------------------|
--5----5-------5-------|--5----5-------5-------|--3--3----3--5--5----5--|
------------0-------0--|------------0-------0--|--3--3----3--5--5----5--|
            .       .               .       .

-------------------------|-----------------------|-----------------------|
-------------------------|-----------------------|-----------------------|
-------------------------|-----------------------|-----------------------|
-------------------------|--6----6-------6-------|--6----6-------6-------|
--6--6----6--1--1--------|--5----5-------5-------|--5----5-------5-------|
--6--6----6--1--1--------|------------0----------|------------0-------0--|
                                      .

-----------------------|-----------------------|------------------------|
-----------------------|-----------------------|------------------------|
-----------------------|-----------------------|------------------------|
-----------------------|-----------------------|------------------------|
--2------2-------------|--5------5-------------|--------1----3-------0--|
--2------2----0--0--0--|--5------5----0--0--0--|--0--0--1----3----0--0--|
              .  .  .                 .  .  .     .  .            .

----------------------------|------------------------|
----------------------------|------------------------|
----------------------------|------------------------|
----------------------------|------------------------|
--------------3p--1---------|--------1----3-------0--|
-----0--3--5---------4p--1--|--0--0--1----3----0--0--|
                               .  .            .

----------------------------|------------------------|
----------------------------|------------------------|
----------------------------|------------------------|
----------------------------|------------------------|
--------------3p--1---------|--------1----3-------0--|
-----0--3--5---------4p--1--|--0--0--1----3----0--0--|
                               .  .            .

----------------------------|------------------------|
----------------------------|------------------------|
----------------------------|------------------------|
----------------------------|------------------------|
--------------3p--1---------|--------1----3-------0--|
-----0--3--5---------4p--1--|--0--0--1----3----0--0--|
                               .  .            .

----------------------------|------------------------|
----------------------------|------------------------|
----------------------------|------------------------|
----------------------------|------------------------|
--------------3p--1---------|--------1----3-------0--|
-----0--3--5---------4p--1--|--0--0--1----3----0--0--|
                               .  .            .

----------------------------|------------------------|
----------------------------|------------------------|
----------------------------|------------------------|
----------------------------|------------------------|
--------------3p--1---------|--------1----3-------0--|
-----0--3--5---------4p--1--|--0--0--1----3----0--0--|
                               .  .            .

----------------------------|------------------------|
----------------------------|------------------------|
----------------------------|------------------------|
----------------------------|------------------------|
--------------3p--1---------|--------1----3-------0--|
-----0--3--5---------4p--1--|--0--0--1----3----0--0--|
                               .  .            .

----------------------------|------------------------|
----------------------------|------------------------|
----------------------------|------------------------|
----------------------------|------------------------|
--------------3p--1---------|--------1----3-------0--|
-----0--3--5---------4p--1--|--0--0--1----3----0--0--|
                               .  .            .

----------------------------||
----------------------------||
----------------------------||
----------------------------||
--------------3p--1---------||
-----0--3--5---------4p--1--||


END
======================================================================
======================================================================
-------------------------------------------------------------------------------
			   Wherein Lies Continue - Slipknot
-------------------------------------------------------------------------------
Tabbed by:thezohan
Email:

Tuning:Drop A(A,E,A,D,F#,B)
Now, since no one was able to tab this out RIGHT I decided I would
SLOW DOWN the song and figure it out correctly. Enjoy!!!

  Intro #1
B |-----------------------------------------------------------|
F#|-----------------------------------------------------------|
D |-----------------------------------------------------------|
A |-----------------------------------------------------------|
E |-4-5-4-5-6-5-4-5--4-7-4---------4-5-4-5-7-5-4-5-4-5-4-5----|
A |-4-5-4-5-6-5-4-5--4-7-4-/7-/7---4-5-4-5-7-5-4-5-4-5-4-5----|
    X X X X X X X X  X X X         X X X X X X X X X X X X

  Verse #1
B |-----------------------------------------------------------|
F#|-----------------------------------------------------------|
D |-----------------------------------------------------------|
A |-----------------------------------------------------------|
E |-4-5-4-5-6-5-4-5--4-7-4--/5-/7--4-5-4-7-4-5-4-5-4-5-4-5----|
A |-4-5-4-5-6-5-4-5--4-7-4--/5-/7--4-5-4-7-4-5-4-5-4-5-4-5----|
    X X X X X X X X  X X X         X X X X X X X X X X X X

 Chorus      X3                              At End of Chorus Do: X1
B |---------------------------------|----------------------------------|
F#|---------------------------------|----------------------------------|
D |---------------------------------|----------------------------------|
A |------7-6---------5/4-X--4/3-X---|------7-6---------5-4-----3-2-----|
E |-7-6--5-4--3-4-5--3/2-X--2/1-X---|-7-6--5-4-3-4-5---3-2-3---1-0-1---|
A |-7-6-------3-4-5-----------------|-7-6------3-4-5-------3-------1---|

  Verse #2     *-pinch harmonic
B |--------------------------------------------------------------|
F#|--------------------------------------------------------------|
D |--------------------------------------------------------------|
A |--------------------------------------------------------------|
E |-0-1-0-1-2-1-0-1--0-1-0-3--6*---0-1-0-1-2-1-0-1-0-1-0-1-3/2---|
A |-0-1-0-1-2-1-0-1--0-1-0-3-------0-1-0-1-2-1-0-1-0-1-0-1-3/2---|
    X X X X X X X X  X X X         X X X X X X X X X X X X

  Riff #1 "I won't control, or restrain, things I do not understand"
B |------------------------------------------------------------------|
F#|------------------------------------------------------------------|
D |------------------------------------------------------------------|
A |------------------------------------------------------------------|
E |-----5-5p3-3-3-----5-5p3-3h5-----8-8p7-7-7-------10-10p8-8h10-----|
A |-5-5-----------4-4-----------8-8-----------10-10------------------|

 Riff #1 Continued


B |-----------------------------------------------------------------------|
F#|-----------------------------------------------------------------------|
D |-----------------------------------------------------------------------|
A |-----------------------------------------------------------------------|
E |-----5-5p3-3-3-----5-5p3-3h5--7-7-8-8-7-7-8-8-8--8--10-10-8--8--10-10--|
A |-5-5-----------4-4------------8-8-8-8-8-8-8-8-10-10-10-10-10-10-10-10--|


  Riff #2 (it's when bass does riff 3 {see below})
B |-6h5h6h5h6h5h6h5h6h5h6h5h6h5h6h5h6h5h6h5h6h5h6h5h6h5h6h5h6h5h6h5h6h5h6--|
F#|------------------------------------------------------------------------|
D |------------------------------------------------------------------------|
A |------------------------------------------------------------------------|
E |------------------------------------------------------------------------|
A |------------------------------------------------------------------------|

  Riff #3 "We have to save ourselves!"
B |------------------------------------------------------|
F#|------------------------------------------------------|
D |------------------------------------------------------|
A |------------------------------------------------------|
E |-8-0--0-000-0-0-8-0-00-0-8-8-8-0-8-11-11-0-0-11-14----|
A |-8-0--0-000-0-0-8-0-00-0-8-8-8-0-8-11-11-0-0-11-14----|
         X XXX X X     XX       X X X       X X

 That took a while. Hope this helped considering the other 2 tabs
were really bad.

   Enjoy! Please Comment/Rate!!!!

| /  slide up
| \  slide down
| h  hammer-on
| p  pull-off
| ~  vibrato
| +  harmonic
| x  Mute note
===============================================================================


END
===============================================================================
===============================================================================
-------------------------------------------------------------------------------
			     "Snuff" --- Slipknot
-------------------------------------------------------------------------------


                              Tabbed by: [travis]

Tuning: Drop B Standard [C# F# B E G# C#] low to high
                        [Db Gb B E Ab Db] (in case you don't know #s)


Key: C Major (C D E F G A B)


Legend:

... = palm mute
/ = slide up
\ = slide down
h = hammer on
p = pull off
~ = vibrato / ring
h/ = pick once
p\ = pick once
/// = slowly slide up
\\\ = slowly slide down

============================================
Intro:
Verse 1:

Guitar 1:
C#|-0~~~------------------0~---0~~~--------------0~~--|
G#|-1~~~------------------1~---1~~~--------------1~~--|
E |-2~~~------------------0~---2~~~--------------0~~--|
B |-2~~~---2~--3~~~-------2~---2~~~--2~--3~~-----2~~--| x3
F#|-0~~~---2~--3~~~-------3~---0~~~--2~--3~~----------|
C |--------0~--1~~~----0-------------0~--1~~---0------|

Guitar 2:
C#|-----------------------------------------------------------------|
G#|-----------------------------------------------------------------|
E |-5---5---5---5---2---2---2---2---5---5---5---5---2---2---2---2---|
B |-7---7---7---7---3---3---3---3---7---7---7---7---3---3---3---3---| x3
F#|---7---7---7---7---3---3---3---3---7---7---7---7---3---3---3---3-|
C |-----------------------------------------------------------------|

End of Verse 1.
=============================================
Break 1:

Guitar 1:
C#|-0---0-0---0---0-0--0--0--0--1--1-1--1--1-1--1--1----0-0-0-|
G#|-1---1-1---1---1-1--1--0--0--1--1-1--1--1-1--1--1----1-1-1-|
E |-2---2-2---2---2-2--2--0--0--2--2-2--2--2-2--2--2--0-0-0-0-|
B |-2---2-2---2---2-2--2--2--2--3--3-3--3--3-3--3--3--0-2-2-2-|
F#|-0---0-0---0---0-0--0--2--2--3--3-3--3--3-3--3--3--0-3-3-3-|
C |-----------------------0--0--1--1-1--1--1-1--1--1----------|

Guitar 2:
C#|-----------------------------------------------------------------------|
G#|-----------------------------------------------------------------------|
E |-----------------------------------------------------------------------|
B |-10-------12-----14----14h/15~~~--14~~~---12h/14p\12h/14--12----10p\9--|
F#|-12-------14-----15----15h/17~~~--15~~~---14h/15p\14h/15--14----12p\10-|
C |-----------------------------------------------------------------------|

==============================================
Guitar 1:
C#|-0--0-0--0--0-0--0-0--0--0--0-0-0-0--1--1-1--1--1-1--1--1--1-1-1---|
G#|-1--1-1--1--1-1--1-1--1--1--0-0-0-0--1--1-1--1--1-1--1--1--1-1-1---|
E |-2--2-2--2--2-2--2-2--2--2--0-0-0-0--2--2-2--2--2-2--2--2--2-2-2-0-|
B |-2--2-2--2--2-2--2-2--2--2--2-2-2-2--3--3-3--3--3-3--3--3--3-3-3-0-|
F#|-0--0-0--0--0-0--0-0--0--0--2-2-2-2--3--3-3--3--3-3--3--3--3-3-3-0-|
C |----------------------------0-0-0-0--1--1-1--1--1-1--1--1--1-1-1---|

Guitar 2:
C#|----------------------------------------------------------------------------|
G#|----------------------------------------------------------------------------|
E |----------------------------------------------------------------------------|
B |-10-------12-----14-----15h/17---15p\14--14---12p\10h/12h/14--12------------|
F#|-12-------14-----15-----17h/19---17p\15--15---14p\12h/14h/15--14---12\10-10-|
C |----------------------------------------------------------------------------|

End of Break 1.
===============================================
Chorus 1:

Guitar 1:
C#|-3--3-3--3-3--3--3--3-3-3-3--0--0-0--0--0-0--0--0--0-0-0---|
G#|-3--3-3--3-3--3--3--3-3-3-3--1--1-1--1--1-1--1--1--1-1-1-0-|
E |-0--0-0--0-0--0--0--0-0-0-0--2--2-2--2--2-2--2--2--2-2-2-0-|
B |-0--0-0--0-0--0--0--0-0-0-0--2--2-2--2--2-2--2--2--2-2-2-0-| x3
F#|-2--2-2--2-2--2--2--2-2-2-2--0--0-0--0--0-0--0--0--0-0-0---|
C |-3--3-3--3-3--3--3--3-3-3-3--------------------------------|

Guitar 2:
C#|-------------------------------------------0~~~~~~~~|
G#|----------------------------------------------------|
E |----------------------------------------10----------|
B |-------------------------------------10-------------| x3
F#|-10--10--10--10--10--10--10--10---12----------------|
C |----------------------------------------------------|

================================================
Guitar 1:
C#|-3--3-3--3-3--3--3-3-3-3--1---1--1---1--1--1--1---|
G#|-3--3-3--3-3--3--3-3-3-3--1---1--1---1--1--1--1---|
E |-0--0-0--0-0--0--0-0-0-0--2---2--2---2--2--2--2-0-|
B |-0--0-0--0-0--0--0-0-0-0--3---3--3---3--3--3--3-0-|
F#|-2--2-2--2-2--2--2-2-2-2--3---3--3---3--3--3--3-0-|
C |-3--3-3--3-3--3--3-3-3-3--1---1--1---1--1--1--1---|

Guitar 2:
C#|-----------------------------------------0~~--------------0~~~------|
G#|---------------------------------------1----1-----------1-----1-----|
E |-------------------------------------2---------2------2---------2p0-|
B |--------------------------------\3-3----------------3---------------|
F#|-10--10--10--10--10--10--10--10-------------------------------------|
C |--------------------------------------------------------------------|

End of Chorus 1.
=================================================
Break 2:

Guitar 1:
C#|-0---0-0---0---0-0--0--0--0--1--1-1--1--1-1--1--1----0-0-0-|
G#|-1---1-1---1---1-1--1--0--0--1--1-1--1--1-1--1--1----1-1-1-|
E |-2---2-2---2---2-2--2--0--0--2--2-2--2--2-2--2--2--0-0-0-0-|
B |-2---2-2---2---2-2--2--2--2--3--3-3--3--3-3--3--3--0-2-2-2-|
F#|-0---0-0---0---0-0--0--2--2--3--3-3--3--3-3--3--3--0-3-3-3-|
C |-----------------------0--0--1--1-1--1--1-1--1--1----------|

Guitar 2:

C#|-0~-0-0-0-0-0-0-0-0-0-0-0-0-0-7h/12-12p\5-5-0-5-0-5-0-5-0-3-0-3-0---------------|
G#|-1~~~~~~~~~~~~~~~~~~~~~~~~~~~~~~----------------------------------5p\3h/5h/8p\5-|
E |-2~~~~~~~~~~~~~~~~~~~~~~~~~~~~~~------------------------------------------------|
B |-2~~~~~~~~~~~~~~~~~~~~~~~~~~~~~~------------------------------------------------|
F#|-0~~~~~~~~~~~~~~~~~~~~~~~~~~~~~~------------------------------------------------|
C |--------------------------------------------------------------------------------|

Guitar 3: use a tremelo effect pedal.
C#|-15p\12--12--12p\10-10p\8-8p\7-7p\5-5p\3--3--3h/5~~~~~~~~~~~~~~~~~|
G#|------------------------------------------------------------------|
E |------------------------------------------------------------------|
B |------------------------------------------------------------------|
F#|------------------------------------------------------------------|
C |------------------------------------------------------------------|

======================================================
Guitar 1:
C#|-0---0-0---0---0-0--0--0--0--1--1-1--1--1-1--1--1----0-0-0-|
G#|-1---1-1---1---1-1--1--0--0--1--1-1--1--1-1--1--1----1-1-1-|
E |-2---2-2---2---2-2--2--0--0--2--2-2--2--2-2--2--2--0-0-0-0-|
B |-2---2-2---2---2-2--2--2--2--3--3-3--3--3-3--3--3--0-2-2-2-|
F#|-0---0-0---0---0-0--0--2--2--3--3-3--3--3-3--3--3--0-3-3-3-|
C |-----------------------0--0--1--1-1--1--1-1--1--1----------|


Guitar 2:
C#|-0-0-0-0-0-0-0-0-0-0-7h/12-12p\5-5-0-5-0-5-0-5-0-3-0-3-0-------------------|
G#|---------------------------------------------------------5p\3h/5~~~~~~~~~~~|
E |---------------------------------------------------------------------------|
B |---------------------------------------------------------------------------|
F#|---------------------------------------------------------------------------|
C |---------------------------------------------------------------------------|

Guitar 3: use a tremelo effect pedal.
C#|-17p\15p\12-12p\10-10p\8-8p\7-7p\5-5h/7--7--13~~~~~~~|
G#|-----------------------------------------------------|
E |-----------------------------------------------------|
B |-----------------------------------------------------|
F#|-----------------------------------------------------|
C |-----------------------------------------------------|

End of Break 2.
=======================================================
Verse 2:

Guitar 1:
C#|-0---0-0---0---0-0--0--0--0--1--1-1--1--1-1--1--1----0-0-0-|
G#|-1---1-1---1---1-1--1--0--0--1--1-1--1--1-1--1--1----1-1-1-|
E |-2---2-2---2---2-2--2--0--0--2--2-2--2--2-2--2--2--0-0-0-0-|
B |-2---2-2---2---2-2--2--2--2--3--3-3--3--3-3--3--3--0-2-2-2-| x3
F#|-0---0-0---0---0-0--0--2--2--3--3-3--3--3-3--3--3--0-3-3-3-|
C |-----------------------0--0--1--1-1--1--1-1--1--1----------|

Guitar 2:
C#|---------------------------------------------------|
G#|-10~~~~~~~~~~~~~~----------------------------------|
E |--x--------------9~~~~~~~~~10~~~~~~~~~~~~~~~~~~~~~~|
B |--7~~~~~~~~~~~~~~x----------x----------------------| x3
F#|-----------------7~~~~~~~~~-8~~~~~~~~~~~~~~~~~~~~~~|
C |---------------------------------------------------|

=========================================================
Guitar 1:
C#|-0--0-0--0--0-0--0-0--0--0--0-0-0-0--1--1-1--1--1-1--1--1--1-1-1---|
G#|-1--1-1--1--1-1--1-1--1--1--0-0-0-0--1--1-1--1--1-1--1--1--1-1-1---|
E |-2--2-2--2--2-2--2-2--2--2--0-0-0-0--2--2-2--2--2-2--2--2--2-2-2-0-|
B |-2--2-2--2--2-2--2-2--2--2--2-2-2-2--3--3-3--3--3-3--3--3--3-3-3-0-|
F#|-0--0-0--0--0-0--0-0--0--0--2-2-2-2--3--3-3--3--3-3--3--3--3-3-3-0-|
C |----------------------------0-0-0-0--1--1-1--1--1-1--1--1--1-1-1---|

Guitar 2:
C#|---------------------------------------------------|
G#|-10~~~~~~~~~~~~~~----------------------------------|
E |--x--------------9~~~~~~~~~10~~~~~~~~~~~~~~~~~~~~~~|
B |--7~~~~~~~~~~~~~~x----------x----------------------|
F#|-----------------7~~~~~~~~~-8~~~~~~~~~~~~~~~~~~~~~~|
C |---------------------------------------------------|

Guitar 3:
C#|---------------------------------------------------|
G#|---------------------------------------------------|
E |---------------------------------------------------|
B |---------------------------------------------------|
F#|---------------------------------------------------|
C |-------------------------------------------3h/15p\-|

End of Verse 2.
===========================================================
Chorus 2:

Guitar 1:
C#|-3--3-3--3-3--3--3--3-3-3-3--0--0-0--0--0-0--0--0--0-0-0---|
G#|-3--3-3--3-3--3--3--3-3-3-3--1--1-1--1--1-1--1--1--1-1-1-0-|
E |-0--0-0--0-0--0--0--0-0-0-0--2--2-2--2--2-2--2--2--2-2-2-0-|
B |-0--0-0--0-0--0--0--0-0-0-0--2--2-2--2--2-2--2--2--2-2-2-0-| x3
F#|-2--2-2--2-2--2--2--2-2-2-2--0--0-0--0--0-0--0--0--0-0-0---|
C |-3--3-3--3-3--3--3--3-3-3-3--------------------------------|

Guitar 2:
C#|-------------------------------------------0~~~~~~~~|
G#|----------------------------------------------------|
E |----------------------------------------10----------|
B |-------------------------------------10-------------| x3
F#|-10--10--10--10--10--10--10--10---12----------------|
C |----------------------------------------------------|

Guitar 3:
C#|----------------------------------------------------------------------------------------|
G#|-3~~~~~~--------------------------------------------------------------------------------|
E |-0~~~~~~-----------------------------------0~~~~~~--------------------------------------|
B |-0~~~~~~----5------------------------------0~~~~~~--5---------------------------------5-|
F#|-x----------5------------------------------x--------5---------------------------------5-|
C |-3~~~~~~------3h/5--5h/8p\5-5h/8p\5~~~~~~3-3~~~~~~-----/12--12h/15p\12--10h/12~~~~~~~---|

==========================================================
Guitar 3:
C#|-3~~~~~~~~---------------------------------|
G#|-3~~~~~~~~---------------------------------|
E |-0~~~~~~~~---------------------------------|
B |-0~~~~~~~~-------------------------------5-|
F#|-x-----------3p\0------------------------5-|
C |-3~~~~~~~~--------3h/5~~~~~~~~~~~~~~~~~~~--|

==========================================================
Guitar 1:
C#|-3--3-3--3-3--3--3-3-3-3--1---1--1---1--1--1--1---|
G#|-3--3-3--3-3--3--3-3-3-3--1---1--1---1--1--1--1---|
E |-0--0-0--0-0--0--0-0-0-0--2---2--2---2--2--2--2-0-|
B |-0--0-0--0-0--0--0-0-0-0--3---3--3---3--3--3--3-0-|
F#|-2--2-2--2-2--2--2-2-2-2--3---3--3---3--3--3--3-0-|
C |-3--3-3--3-3--3--3-3-3-3--1---1--1---1--1--1--1---|

Guitar 2:
C#|-----------------------------------------0~~--------------0~~~------|
G#|---------------------------------------1----1-----------1-----1-----|
E |-------------------------------------2---------2------2---------2p0-|
B |--------------------------------\3-3----------------3---------------|
F#|-10--10--10--10--10--10--10--10-------------------------------------|
C |--------------------------------------------------------------------|

Guitar 3:
C#|---------------------------------------------------|
G#|---------------------------------------------------|
E |---------------------------------------------------|
B |---------------------------------------------------|
F#|--------------------3-3-3-3-3-3-3-3-3-3-3-3-3-3--3-|
C |-3~~~~~~~~~~~~~~~~0-1-1-1-1-1-1-1-1-1-1-1-1-1-1--1-|
                         .........................

Guitar 4:
C#|---------------------------------------------------|
G#|---------------------------------------------------|
E |-----------------------------------------x---------|
B |-----------------------------------------x---------|
F#|---------------------------------------------------|
C |--------------------------------------------3h/15p\|

End of Chorus 2.
=============================================================
Break 2:

Guitar 1:
C#|-0---0-0---0---0-0--0--0--0--1--1-1--1--1-1--1--1----0-0-0-|
G#|-1---1-1---1---1-1--1--0--0--1--1-1--1--1-1--1--1----1-1-1-|
E |-2---2-2---2---2-2--2--0--0--2--2-2--2--2-2--2--2--0-0-0-0-|
B |-2---2-2---2---2-2--2--2--2--3--3-3--3--3-3--3--3--0-2-2-2-|
F#|-0---0-0---0---0-0--0--2--2--3--3-3--3--3-3--3--3--0-3-3-3-|
C |-----------------------0--0--1--1-1--1--1-1--1--1----------|

Guitar 2: tremelo effect.
C#|-17p\15-12-12p\10-10p\8-8p\7-7p\5-5p\3--3--5~~~~~~~~~~~~~~|
G#|----------------------------------------------------------|
E |----------------------------------------------------------|
B |----------------------------------------------------------|
F#|----------------------------------------------------------|
C |----------------------------------------------------------|

Guitars 3 and 4:
C#|-------------------------------------------------------|
G#|-------------------------------------------------------|
E |----------------------------------------------------5~~|
B |-7---7--7-7-7-7--7---7----3--3-3--3--3-3-3-3--3-----5~~|
F#|-7---7--7-7-7-7--7---7-0--3--3-3--3--3-3-3-3--3--0--3~~|
C |-5---5--5-5-5-5--5---5-0--1--1-1--1--1-1-1-1--1--0-----|

======================================================
Guitar 1:
C#|-0---0-0---0---0-0--0--0--0--1--1-1--1--1-1--1--1----0-0-0-|
G#|-1---1-1---1---1-1--1--0--0--1--1-1--1--1-1--1--1----1-1-1-|
E |-2---2-2---2---2-2--2--0--0--2--2-2--2--2-2--2--2--0-0-0-0-|
B |-2---2-2---2---2-2--2--2--2--3--3-3--3--3-3--3--3--0-2-2-2-|
F#|-0---0-0---0---0-0--0--2--2--3--3-3--3--3-3--3--3--0-3-3-3-|
C |-----------------------0--0--1--1-1--1--1-1--1--1----------|

Guitar 2: tremelo effect.
C#|-17p\15-12-12p\10-10p\8-8p\7-7p\5-5h/7--7--8~~~~~~~~~~~~~~~|
G#|-----------------------------------------------------------|
E |-----------------------------------------------------------|
B |-----------------------------------------------------------|
F#|-----------------------------------------------------------|
C |-----------------------------------------------------------|

Guitars 3 and 4:
C#|-------------------------------------------------------|
G#|-------------------------------------------------------|
E |----------------------------------------------------5~~|
B |-7---7--7-7-7-7--7---7----3--3-3--3--3-3-3-3--3-----5~~|
F#|-7---7--7-7-7-7--7---7-0--3--3-3--3--3-3-3-3--3--0--3~~|
C |-5---5--5-5-5-5--5---5-0--1--1-1--1--1-1-1-1--1--0-----|

========================================================
Guitar 1:
C#|-0---0-0---0---0-0--0--0--0--1--1-1--1--1-1--1--1----0-0-0-|
G#|-1---1-1---1---1-1--1--0--0--1--1-1--1--1-1--1--1----1-1-1-|
E |-2---2-2---2---2-2--2--0--0--2--2-2--2--2-2--2--2--0-0-0-0-|
B |-2---2-2---2---2-2--2--2--2--3--3-3--3--3-3--3--3--0-2-2-2-|
F#|-0---0-0---0---0-0--0--2--2--3--3-3--3--3-3--3--3--0-3-3-3-|
C |-----------------------0--0--1--1-1--1--1-1--1--1----------|

Guitar 2: tremelo effect.
C#|-17p\15-12-12p\10-10p\8-8p\7-7p\5-5p\3--3~~~~~5~~~~~~~~~~~~|
G#|-----------------------------------------------------------|
E |-----------------------------------------------------------|
B |-----------------------------------------------------------|
F#|-----------------------------------------------------------|
C |-----------------------------------------------------------|

Guitars 3:
C#|-------------------------------------------------------|
G#|-------------------------------------------------------|
E |----------------------------------------------------5~~|
B |-7---7--7-7-7-7--7---7----3--3-3--3--3-3-3-3--3-----5~~|
F#|-7---7--7-7-7-7--7---7-0--3--3-3--3--3-3-3-3--3--0--3~~|
C |-5---5--5-5-5-5--5---5-0--1--1-1--1--1-1-1-1--1--0-----|

Guitar 4:
C#|-------------------------------------------------------|
G#|-------------------------------------------------------|
E |-----4--4-4--5---5-5-9-9-9-9------------------------5~~|
B |-7---x--x-x--x---x-x-x-x-x-x--3---3--3-3-3-3--3-----5~~|
F#|-7---2--2-2--3---3-3-7-7-7-7--3---3--3-3-3-3--3--0--3~~|
C |-5----------------------------1---1--1-1-1-1--1--0-----|

=====================================================
Guitar 1:
C#|-0--0-0--0--0-0--0-0--0--0--0-0-0-0--1--1-1--1--1-1--1--1--1-1-1---|
G#|-1--1-1--1--1-1--1-1--1--1--0-0-0-0--1--1-1--1--1-1--1--1--1-1-1---|
E |-2--2-2--2--2-2--2-2--2--2--0-0-0-0--2--2-2--2--2-2--2--2--2-2-2-0-|
B |-2--2-2--2--2-2--2-2--2--2--2-2-2-2--3--3-3--3--3-3--3--3--3-3-3-0-|
F#|-0--0-0--0--0-0--0-0--0--0--2-2-2-2--3--3-3--3--3-3--3--3--3-3-3-0-|
C |----------------------------0-0-0-0--1--1-1--1--1-1--1--1--1-1-1---|

Guitar 2: tremelo effect.
C#|-17p\15-12-12p\10-10p\8-8p\7-7p\5-5h/7~~~~~~8~~~~~~~~~~~~~~~~~~~~~~|
G#|-------------------------------------------------------------------|
E |-------------------------------------------------------------------|
B |-------------------------------------------------------------------|
F#|-------------------------------------------------------------------|
C |-------------------------------------------------------------------|

Guitar 3:
C#|--------------------------------------------------------|
G#|--------------------------------------------------------|
E |--------------------------------------------------------|
B |-7---7--7-7-7-7--7--7------3--3-3--3~~~~------------3---|
F#|-7---7--7-7-7-7--7--7------3--3-3--3~~~~3-3-3-3-3-3-3-0-|
C |-5---5--5-5-5-5--5--5-0~~~~1--1-1--1~~~~1-1-1-1-1-1-1-0-|
                                           ...........

Guitar 4:
C#|--------------------------------------------------------|
G#|--------------------------------------------------------|
E |-----4--4-4-5-5-5-5----9~~~-----------------------------|
B |-7---x--x-x-x-x-x-x-x--x~~~3~~3-3-3-3-3-------------3---|
F#|-7---2--2-2-3-3-3-3-x--7~~~3~~3-3-3-3-3-3-3-3-3-3-3-3-x-|
C |-5-------------------------1~~1-1-1-1-1-1-1-1-1-1-1-1-x-|
                                           ...........

End of Break 2.
========================================================
Chorus 3:

Guitar 1:
C#|-3--3-3--3-3--3--3--3-3-3-3--0--0-0--0--0-0--0--0--0-0-0---|
G#|-3--3-3--3-3--3--3--3-3-3-3--1--1-1--1--1-1--1--1--1-1-1-0-|
E |-0--0-0--0-0--0--0--0-0-0-0--2--2-2--2--2-2--2--2--2-2-2-0-|
B |-0--0-0--0-0--0--0--0-0-0-0--2--2-2--2--2-2--2--2--2-2-2-0-| x2
F#|-2--2-2--2-2--2--2--2-2-2-2--0--0-0--0--0-0--0--0--0-0-0---|
C |-3--3-3--3-3--3--3--3-3-3-3--------------------------------|

Guitar 3:
C#|-----------------------------------------------------------|
G#|-----------------------------------------------------------|
E |-----------------------------------------------------------|
B |-5--5-5--5--5---5-5--5---2~~~~~~~~~~~~~~~~~~~~~~~~~~~~~~~~~| x2
F#|-5--5-5--5--5---5-5--5-------------------------------------|
C |-3--3-3--3--3---3-3--3-------------------------------------|

Guitar 4:
C#|----------------------------------------------------------|
G#|----------------------------------------------------------|
E |----------------------------------------------------------|
B |-5--5--5-5-5-5--5--5--5-5--5--7--7--7-7-7-7--7--7--7-7--7-| x2
F#|-5--5--5-5-5-5--5--5--5-5--5--7--7--7-7-7-7--7--7--7-7--7-|
C |-3--3--3-3-3-3--3--3--3-3--3--5--5--5-5-5-5--5--5--5-5--5-|

=========================================================
Guitar 1:
                    [+++Pause++++]
C#|-3--3--3--3-3-3-3--------------0----0-0--0--0--0-0----|
G#|-3--3--3--3-3-3-3--------------1----1-1--1--1--1-1----|
E |-0--0--0--0-0-0-0--------------2----2-2--2--2--2-2--0-|
B |-0--0--0--0-0-0-0--------------2----2-2--2--2--2-2--0-|
F#|-2--2--2--2-2-2-2--------------0----0-0--0--0--0-0--0-|
C |-3--3--3--3-3-3-3-------------------------------------|

Guitar 2:
C#|----------------------------------------0~~~~~~~~~~~~~|
G#|------------------------------------------------------|
E |-------------------------------------10---------------|
B |----------------------------------10------------------|
F#|-10--10--10--10--10------------12---------------------|
C |------------------------------------------------------|

Guitar 3:
C#|-----------------------------------------------------------|
G#|-----------------8~~~~~~~~~~~~-----------------------------|
E |-----------------5~~~~~~~~~~~~-----------------------------|
B |-5---5--5-5--5----------------7--7--7--7-7-7-7--7--7-7-7-7-|
F#|-5---5--5-5--5----------------7--7--7--7-7-7-7--7--7-7-7-7-|
C |-3---3--3-3--3----------------5--5--5--5-5-5-5--5--5-5-5-5-|

Guitar 4:
C#|-----------------------------------------------------------|
G#|-----------------------------------------------------------|
E |-----------------------------------------------------------|
B |-5---5--5-5-5-5---------------7--7--7--7-7-7-7--7--7-7-7-7-|
F#|-5---5--5-5-5-5---------------7--7--7--7-7-7-7--7--7-7-7-7-|
C |-3---3--3-3-3-3--5p\\\\\\\\\\-5--5--5--5-5-5-5--5--5-5-5-5-|

==========================================================
Guitar 1:
C#|-3--3-3--3-3--3--3-3-3-3--1---1--1---1--1--1--1---|
G#|-3--3-3--3-3--3--3-3-3-3--1---1--1---1--1--1--1---|
E |-0--0-0--0-0--0--0-0-0-0--2---2--2---2--2--2--2-0-|
B |-0--0-0--0-0--0--0-0-0-0--3---3--3---3--3--3--3-0-|
F#|-2--2-2--2-2--2--2-2-2-2--3---3--3---3--3--3--3-0-|
C |-3--3-3--3-3--3--3-3-3-3--1---1--1---1--1--1--1---|

Guitar 2:
C#|-----------------------------------------0~~--------------0~~~------|
G#|---------------------------------------1----1-----------1-----1-----|
E |-------------------------------------2---------2------2---------2p0-|
B |--------------------------------\3-3----------------3---------------|
F#|-10--10--10--10--10--10--10--10-------------------------------------|
C |--------------------------------------------------------------------|

Guitars 3 and 4:

C#|-----------------------------------------------------------|
G#|-----------------------------------------------------------|
E |-----------------------------------------------------------|
B |-5--5--5-5-5-5--5--5-5-5----3------------------3-3-3-3-3-3-|
F#|-5--5--5-5-5-5--5--5-5-5-x--3--3-3-3-3-3-3-3-3-3-3-3-3-3-3-|
C |-3--3--3-3-3-3--3--3-3-3-x--1--1-1-1-1-1-1-1-1-1-1-1-1-1-1-|
                                  ...............

============================================================
Guitar 1:
C#|-0--0-0-0-0-0-0-0-0-0-0-0-0-0-0--1--1-1-1-1-1-1-1-1-1-1-1-1-1----|
G#|-1--1-1-1-1-1-1-1-1-1-1-1-1-1-1--1--1-1-1-1-1-1-1-1-1-1-1-1-1----|
E |-2--2-2-2-2-2-2-2-2-2-2-2-2-2-2--2--2-2-2-2-2-2-2-2-2-2-2-2-2--0-|
B |-2--2-2-2-2-2-2-2-2-2-2-2-2-2-2--3--3-3-3-3-3-3-3-3-3-3-3-3-3--0-|
F#|-0--0-0-0-0-0-0-0-0-0-0-0-0-0-0--3--3-3-3-3-3-3-3-3-3-3-3-3-3--0-|
C |---------------------------------1--1-1-1-1-1-1-1-1-1-1-1-1-1----|

Guitar 3:
C#|-----------------------------------------------------------------|
G#|-----------------------------------------------------------------|
E |-----------------5-5-5-5-9-9-9-----------------------------------|
B |-7-7-7-7-9-9-9-9-x-x-x-x-x-x-x---3-3-3-3-3-3-3-3-3-3-3-3-3-3-3---|
F#|-7-7-7-7-x-x-x-x-3-3-3-3-7-7-7-x-3-3-3-3-3-3-3-3-3-3-3-3-3-3-3-x-|
C |-5-5-5-5-7-7-7-7---------------x-1-1-1-1-1-1-1-1-1-1-1-1-1-1-1-x-|

Guitar 4:
C#|-----------------------------------------------------------------|
G#|-----------------------------------------------------------------|
E |-----------------------------------------------------------------|
B |-7-7-7-7-7-7-7-7-7-7-7-7-7-7-7---3-3-3-3-3-3-3-3-3-3-3-3-3-3-3---|
F#|-7-7-7-7-7-7-7-7-7-7-7-7-7-7-7-x-3-3-3-3-3-3-3-3-3-3-3-3-3-3-3-x-|
C |-5-5-5-5-5-5-5-5-5-5-5-5-5-5-5-x-1-1-1-1-1-1-1-1-1-1-1-1-1-1-1-x-|

End of Chorus 3.
=============================================================
Outro:

Guitar 1:
C#|-0---0-0---0---0-0--0--0--0--1--1-1--1--1-1--1--1----0-0-0-|
G#|-1---1-1---1---1-1--1--0--0--1--1-1--1--1-1--1--1----1-1-1-|
E |-2---2-2---2---2-2--2--0--0--2--2-2--2--2-2--2--2--0-0-0-0-|
B |-2---2-2---2---2-2--2--2--2--3--3-3--3--3-3--3--3--0-2-2-2-|
F#|-0---0-0---0---0-0--0--2--2--3--3-3--3--3-3--3--3--0-3-3-3-|
C |-----------------------0--0--1--1-1--1--1-1--1--1----------|

Guitar 2: tremelo effect.
C#|-17p\15-12-12p\10-10p\8-8p\7-7p\5-5p\3--3--5~~~~~~~~~~~~~~~|
G#|-----------------------------------------------------------|
E |-----------------------------------------------------------|
B |-----------------------------------------------------------|
F#|-----------------------------------------------------------|
C |-----------------------------------------------------------|

Guitars 3 and 4: Fade out.
C#|----------------------|
G#|----------------------|
E |----------------------|
B |-7~~~~~~~~~~~~~~~~~~~~|
F#|-7~~~~~~~~~~~~~~~~~~~~|
C |-5~~~~~~~~~~~~~~~~~~~~|

==============================================================
Guitar 1:
C#|-0---0-0---0---0-0--0--0--0--1--1-1--1--1-1--1--1----0-0-0-|
G#|-1---1-1---1---1-1--1--0--0--1--1-1--1--1-1--1--1----1-1-1-|
E |-2---2-2---2---2-2--2--0--0--2--2-2--2--2-2--2--2--0-0-0-0-|
B |-2---2-2---2---2-2--2--2--2--3--3-3--3--3-3--3--3--0-2-2-2-|
F#|-0---0-0---0---0-0--0--2--2--3--3-3--3--3-3--3--3--0-3-3-3-|
C |-----------------------0--0--1--1-1--1--1-1--1--1----------|

Guitar 2:
C#|-17p\15-12-12p\10-10p\8-8p\7-7p\5-5h/7--7--8~~~~~~~~~~~~~~~|
G#|-----------------------------------------------------------|
E |-----------------------------------------------------------|
B |-----------------------------------------------------------|
F#|-----------------------------------------------------------|
C |-----------------------------------------------------------|

===============================================================
Guitar 1:
C#|-0~~~~~~~~~~~~~~~~~~~~~~~|
G#|-1~~~~~~~~~~~~~~~~~~~~~~~|
E |-2~~~~~~~~~~~~~~~~~~~~~~~|
B |-2~~~~~~~~~~~~~~~~~~~~~~~|
F#|-0~~~~~~~~~~~~~~~~~~~~~~~|
C |-------------------------|


End of Song.


Please Rate and Comment My Tab.
Thanks.

[travis]


END
========================================================================
========================================================================
Artist: Slipknot
Song: All Hope Is Gone


Intro Riff 1
C#|---------------------------------------------¦
G#|---------------------------------------------¦
E |---------------------------------------------¦
B |---------------------------------------------¦
F#|-----------------0------------------0--------¦
B |-6p3h6p3-7p4h7p4-0--6p3h6p3-7p4h7p4-0--------¦

Intro Riff 1 Cont.
C#|-----------------------------------------------------¦
G#|-----------------------------------------------------¦
E |-----------------------------------------------------¦
B |-----------------------------------------------------¦
F#|------------------0--8p5h8p5-------9p6h9p6-10p7h10p7-¦
B |--6p3h6p3-7p4h7p4-0---------8p5h8p5------------------¦

Play all above twice!

Intro Riff 2
C#|---------------------------------|
G#|---------------------------------|
E |---------------------------------| X8
B |---------------------------------|
F#|-0-0-6-0-0-5-0-0-6-0-0-5-0-3-0-0-|
B |-0-0-6-0-0-5-0-0-6-0-0-5-0-3-0-0-|
pm  . .   . .   . .   . .   .   .

Bit Before Verse
C#|--------------------------------|
G#|--------------------------------|
E |--------------------------------|
B |-3~~~~~~~~~~~~~~~~~~~~~~~~~~~~--|
F#|-0~~~~~~~~~~~~~~~~~~~~~~~~~~~~--|
B |-0~~~~~~~~~~~~~~~~~~~~~~~~~~~~--|

Verse riff 1                         | after the first four times, play:
C#|----------------------------------|---------------------|
G#|----------------------------------|---------------------|
E |----------------------------------|X8-------------------|
B |----------------------------------|---------------------|
F#|---------9999999988888888---------|--------------12\\-6-|
B |-66666666----------------99999999-|--------------12\\-6-|

C#|--------------------------------|
G#|--------------------------------|
E |--------------------------------|
B |--------------------------------|
F#|-0~~~~~~~~~~~~~~~~~~~~~~~~~~~~--|
B |-0~~~~~~~~~~~~~~~~~~~~~~~~~~~~--|

Verse riff 2
C#|-------------------------------------------------------------------¦
G#|-------------------------------------------------------------------¦
E |-------------------------------------------------------------------¦
B |-------------------------------------------------------------------¦
F#|--------777777888888------------------555555777777888888-----------¦
B |777777----------------1010101010101010--------------------66666666-¦

Chorus (please listen to the song for the correct rhythm)


C#|-----------------------------------------------------------¦
G#|-----------------------------------------------------------¦
E |-----------------------------------------------------------¦
B |-00000000-888888-77-88-13131313131313-13-11111111-10101010-¦
F#|-00000000-555555-77-88-13131313131313-13-13131313-12121212-¦
B |-00000000-555555-77-88-13131313131313-13-------------------¦


C#|---------------------------------------------------------¦
G#|---------------------------------------------------------¦
E |---------------------------------------------------------¦
B |-00000000-888888-77-88-3--3-3-3-3-3-3/6-1--1-1-1-1-1-1-1-¦
F#|-00000000-555555-77-88-3--3-3-3-3-3-3/6-1--1-1-1-1-1-1-1-¦
B |-00000000-555555-77-88-3--3-3-3-3-3-3/6-1--1-1-1-1-1-1-1-¦
pm                           . . . . .        . . . . . . .

C#|--------------------------------¦
G#|--------------------------------¦
E |--------------------------------¦
B |--------------------------------¦
F#|-0~~~~~~~~~~~~~~~~~~~~~~~~~~~~--¦
B |-0~~~~~~~~~~~~~~~~~~~~~~~~~~~~--¦

Solo breakdown (sorry, can't work out the solo)
C#|-------------------------------------------------¦
G#|-------------------------------------------------¦
E |-------------------------------------------------¦X2
B |-------------------------------------------------¦
F#|-------------------------------------------------¦
B |-0-3-6-0-3-5-0-3-6-0-0-5-0-3-0-0-----------------¦

C#|-------------------------------------------------¦
G#|-------------------------------------------------¦
E |-------------------------------------------------¦X8
B |-------------------------------------------------¦
F#|-------------------------------------------------¦
B |-0-3-6-0-3-5-0-3-6-0-0-5-0-3-0-0-----------------¦
pm  . . . . . . . . . . . . . . . .

CHORUS

Breakdown
C#|-------------------------------------------------¦
G#|-------------------------------------------------¦
E |-------------------------------------------------¦
B |------------------------------------//7\\//8\\---¦
F#|-8--7--5-7-3-2~-1----8-7-5-7-3-2~-1--------------¦
B |-8--7--5-7-3-2~-1----8-7-5-7-3-2~-1--------------¦
pm  .  .  . . .         . . . . .

C#|-----------------------------------------------¦
G#|-----------------------------------------------¦
E |-----------------------------------------------¦X2
B |------------------------------------//7\\//8\\-¦
F#|-8-7-5-7-3-2~-1----8-7-5-7-3-2~-1--------------¦
B |-8-7-5-7-3-2~-1----8-7-5-7-3-2~-1--------------¦
pm  . . . . .         . . . . .

C#|-----------------------------------------------¦
G#|-----------------------------------------------¦
E |-----------------------------------------------¦
B |-----------------------------------------------¦
F#|-8-7-5-7-3-2~-1----8-7-5-7-3-2~-1--1--1--------¦
B |-8-7-5-7-3-2~-1----8-7-5-7-3-2~-1--1--1--------¦
pm  . . . . .         . . . . .       .  .

C#|-----------------------------------------------------¦
G#|-----------------------------------------------------¦
E |-----------------------------------------------------¦
B |----------------------------------------//7\\//8\\---¦
F#|-8--7--5-7-3-2~-1-1-1-1--8-7-5-7-3-2~-1--------------¦
B |-8--7--5-7-3-2~-1-1-1-1--8-7-5-7-3-2~-1--------------¦
pm  .  .  . . .      . . .  . . . . .

C#|----------------------------------------------------¦
G#|----------------------------------------------------¦
E |----------------------------------------------------¦ X2
B |-----------------------------------------//7\\//8\\-¦
F#|-8-7-5-7-3-2~-1--1-1-1--8-7-5-7-3-2~-1--------------¦
B |-8-7-5-7-3-2~-1--1-1-1--8-7-5-7-3-2~-1--------------¦
pm  . . . . .       . . .  . . . . .

C#|----------------------------------------------------¦
G#|----------------------------------------------------¦
E |----------------------------------------------------¦
B |----------------------------------------------------¦
F#|-8-7-5-7-3-2~-1--1-1-1--8-7-5-7-3-2~-1--1--1--------¦
B |-8-7-5-7-3-2~-1--1-1-1--8-7-5-7-3-2~-1--1--1--------¦
pm  . . . . .       . . .  . . . . .       .  .


VERSE RIFF 2 X2

Verse riff 3
C#|------------------------------------------------------------------¦
G#|------------------------------------------------------------------¦
E |------------------------------------------------------------------¦ X2
B |---------7777777788888888--------555555557777777788888888---------¦
F#|-55555555----------------88888888------------------------44444444-¦
B |------------------------------------------------------------------¦


CHORUS X2

BREAKDOWN


END
========================================================================
========================================================================

                      SPECIAL EDITION BONUS SONGS:

_________________________________________________________________________
Artist: Slipknot
Song: Child Of Burning Time


there is only one tab up and it doesnt help me with the rhythm of the song.
ive listed to the song and played along with it and this is wat i got.
i hope this helps u guys.

C#----------------------------------------------| This is the 1st part of the
G#----------------------------------------------| verse
E-----------------------------------------------|
B---2-22-3-33-5-55-3-33-2-2-3p2-33--------------|
F#--2-22-3-33-5-55-3-33-2-2-3p2-33-3--2--3--2-3*|
B---2-22-3-33-5-55-3-33-2-2-3p2-33--33-22-33-2--|
PM    --   --   --   -- - -     --  -- -- -- -

C#---------------------------------------------------| For the second part, its a
G#---------------------------------------------------| hammer-on/pull-off
E----------------------------------------------------| instead of a pinch harmonic
B---2-22-3-33-5-55-3-33-2-2-3p2-33-------------------|
F#--2-22-3-33-5-55-3-33-2-2-3p2-33-3--2--3--2-3h5p3--|
B---2-22-3-33-5-55-3-33-2-2-3p2-33--33-22-33-2-------|
PM    --   --   --   --         --  -- -- -- -

C#----------------------------------------------| For the third part, all
G#----------------------------------------------| chords are palm muted
E-----------------------------------------------|
B---2-22-3-33-5-55-3-33-2-2-3p2-33--------------|
F#--2-22-3-33-5-55-3-33-2-2-3p2-33-3--2--3--2-3b|
B---2-22-3-33-5-55-3-33-2-2-3p2-33--33-22-33-2--|
PM  - -- - -- - -- - -- - - - - --  -- -- -- -

C#----------------------------------------------| Let it ring (pre-chorus)
G#----------------------------------------------|
E-----------------------------------------------|
B---2~~~~~~~~~----------------------------------|
F#--2~~~~~~~~~----------------------------------|
B---2~~~~~~~~~----------------------------------|


C#----------------------------------------------| the chorus
G#----------------------------------------------|
E-----------------------------------------------|
B---5~~~~5/888-2~~~~----------------------------|
F#--5~~~~5/888-2~~~~----------------------------|
B---5~~~~5/888-2~~~~----------------------------|


C#-----------------------------------------------------| verse that starts at about
G#----------------------------------------------| 3:00-| ( idk the tremolo riff
E------------------------------------------------------| b4 this. sorry)
B---2-22222-55-33-22-3p2p0-3-33333-33-33-33-33-3-------| NOTE: this is also the solo
F#--2-22222-55-33-22-3p2p2-3-33333-33-33-33-33-3-------| backing for the outro solo
B---2-22222-55-33-22-3p2p0-3-33333-33-33-33-33-3-------|
PM    -----  -  -  -         -----  -  -  -  -

piece everything together and you got child of burning time.
i got most of the song. sorry that i didnt get all of it.
enjoy what ive got

END

====================================================================
Artist: Slipknot
Song: Till We Die


This is my first tab so be nice!! if u have any edits of ur own e-mail me at Broli@hotmail.co.uk

Intro:
e|---------------------------------| (x4)
B|---------------------------------|
G|---------------------------------|
D|---4~-9-7-6-7-6-4-2~-22----------|
A|---------------------------------|
D|---------------------------------|

Chorus:
e|---------------------------------| (x4)
B|---------------------------------|
G|---------------------------------|
D|---4~-9-7-6-7-6-4-2~-22----------|
A|---4~-9-7-6-7-6-4-2~-22----------|
D|---4~-9-7-6-7-6-4-2~-22----------|

Verse:
e|------------------------------------|---------------------------------------| (x4)
B|------------------------------------|---------------------------------------|
G|------------------------------------|---------------------------------------|
D|-----4444---4444---4444---4444------|-----2222---2222---2222---2222---------|
A|-----4444---4444---4444---4444------|-----2222---2222---2222---2222---------|
D|---4------4------4------4-----------|---2------2------2------2--------------|

Chorus:
e|---------------------------------| (x2)
B|---------------------------------|
G|---------------------------------|
D|---4~-9-7-6-7-6-4-2~-22----------|
A|---4~-9-7-6-7-6-4-2~-22----------|
D|---4~-9-7-6-7-6-4-2~-22----------|

Verse:
e|------------------------------------|---------------------------------------| (x4)
B|------------------------------------|---------------------------------------|
G|------------------------------------|---------------------------------------|
D|-----4444---4444---4444---4444------|-----2222---2222---2222---2222---------|
A|-----4444---4444---4444---4444------|-----2222---2222---2222---2222---------|
D|---4------4------4------4-----------|---2------2------2------2--------------|

Chorus:
e|---------------------------------| (x4)
B|---------------------------------|
G|---------------------------------|
D|---4~-9-7-6-7-6-4-2~-22----------|
A|---4~-9-7-6-7-6-4-2~-22----------|
D|---4~-9-7-6-7-6-4-2~-22----------|

Bridge:
e|------------------------------| (x2)
B|------------------------------|
G|------------------------------|
D|-11111111111111111111v11v11v--| (11's not 1's)
A|------------------------------|
D|------------------------------|

Chorus:

e|---------------------------------| (x2)
B|---------------------------------|
G|---------------------------------|
D|---4~-9-7-6-7-6-4-2~-22----------|
A|---4~-9-7-6-7-6-4-2~-22----------|
D|---4~-9-7-6-7-6-4-2~-22----------|

Verse:
e|------------------------------------|---------------------------------------| (x2)
B|------------------------------------|---------------------------------------|
G|------------------------------------|---------------------------------------|
D|-----4444---4444---4444---4444------|-----2222---2222---2222---2222---------|
A|-----4444---4444---4444---4444------|-----2222---2222---2222---2222---------|
D|---4------4------4------4-----------|---2------2------2------2--------------|

Chorus:
e|---------------------------------| (x6)
B|---------------------------------|
G|---------------------------------|
D|---4~-9-7-6-7-6-4-2~-22----------|
A|---4~-9-7-6-7-6-4-2~-22----------|
D|---4~-9-7-6-7-6-4-2~-22----------|

Solo: (Only figured the end break down, if u figure out the rest let me know)
e|------------------------------|
B|------------------------------|
G|---9-7-6-7-6-5-6-5-3-2~-------|
D|------------------------------|
A|------------------------------|
D|------------------------------|

Chorus:
e|---------------------------------| (Till End)
B|---------------------------------|
G|---------------------------------|
D|---4~-9-7-6-7-6-4-2~-22----------|
A|---4~-9-7-6-7-6-4-2~-22----------|
D|---4~-9-7-6-7-6-4-2~-22----------|

END
======================================================================

That's It.

Please Rate And Comment This Tab.
16 comments total. Showing first comments.
+2 reply
rongold360 wrote on May 21 2009, 10:22 am

Nice job dude. Thanks for using my Gematria.
-rongold360

+1 reply
rongold360 wrote on May 21 2009, 10:24 am

BTW, add Wherin Lies Continue into the content lol. Its in the actual tab though lol.

+1 reply
frantic_saint wrote on May 21 2009, 10:54 am

Yeah where is Wherein Lies Continue? Other than that, Nice.

I want to post or [tab]
guest
You may want to rate the tab now too:
select rating
Please do not post tabs as comments. Select "correction" instead!