Oops, an error
Loading. Please wait.

Child Of Burning Time Tab

ver2
ver2

Intro

Whole song

Interactive

More versions @911Tabs.com
1,046 views 3 this week
no commentswrite comment
1 2 3 4 5
not so good
x 1
Autoscroll
+/-
esc
set tempo
stop
Contributor
Difficulty
Tuning
intermediate
B F# B E G# C#
Hey! There's an official Ultimate Guitar app which is ideal
for learning songs when you're away from computer. Get the app
WARNING: You are trying to view
                                    content from Ultimate-Guitar.com
                                    in an unauthorized application,
                                    which is prohibited.

                                    Please use an official Ultimate
                                    Guitar Tabs application for iPhone,
                                    iPad or Android to access legitimate
                                    chords, guitar, bass, and drum tabs
                                    from Ultimate-Guitar.com database.

                                    Type "ultimate guitar tabs" in Apple
                                    App Store's or Android Market's
                                    search to find the application.
                Child Of Burning Time


                                                Slipknot
Lead Guitar,rythym is underneath

C#||-------|-------|-------|-------|
G#||-------|-------|-------|-------|
E ||-------|-------|-------|-------|
B ||-------|-------|-------|-------|
F#||-------|-------|-------|-------|
B ||-------|-------|-------|-------|


  Some sort of vibrating effect used here...
  Q                                          E  Q     E
--------------------------------------------------------|
--5~-----------------------------------------L--6~----L-|
--------------------------------------------------------|
--------------------------------------------------------|
--------------------------------------------------------|
--------------------------------------------------------|


  E   Q     Q    E   Q        H         E  E  E   E
---------------------------|--------------------------|
--L~--6~----L----L~--------|--6~--------L--L--8~--6~--|
---------------------7~----|--------------------------|
---------------------------|--------------------------|
---------------------------|--------------------------|
---------------------------|--------------------------|


  E   E   E   E   S   S  E   E   E
------5~--5~-------------------------|
--8~----------6~--6s~-8~-6~------6~--|
-----------------------------7~------|
-------------------------------------|
-------------------------------------|
-------------------------------------|


   E    E   E  E   E  E  E   E
--12~---L---L--7~--L--L--8~--L--|
--------------------------------|
--------------------------------|
--------------------------------|
--------------------------------|
--------------------------------|


  E  E  E  E  E  E  E   E
--L--L--L--L--L--L--7~--8~--|
----------------------------|
----------------------------|
----------------------------|
----------------------------|
----------------------------|


  T  T  S  E   E   E   E   E   E   E
--7~-8~-7~-5~------7~--5~----------7~--|
---------------8~----------8~--8~------|
---------------------------------------|
---------------------------------------|
---------------------------------------|
---------------------------------------|


  W                    E   E   E  E   Q     E   E
--5~----------------|--5~--8~--L--8~--7~------------|
--------------------|-----------------------6~--5~--|
--------------------|-------------------------------|
--------------------|-------------------------------|
--------------------|-------------------------------|
--------------------|-------------------------------|


  E   E   Q     H
-------------------------|
--5~--8~--6~----L--------|
-------------------------|
-------------------------|
-------------------------|
-------------------------|


  E   E   E   E   E   E   E   E
----------------------------------|
--8~--8~--8~--6~--6~--6~--5~--5~--|
----------------------------------|
----------------------------------|
----------------------------------|
----------------------------------|


                          W
  E   E   E   E   E   E   Q
--------------------------------|-------|-------|
--5~--3~--3~--3~--5~--6~--5~----|-------|-------|
--------------------------------|-------|-------|
--------------------------------|-------|-------|
--------------------------------|-------|-------|
--------------------------------|-------|-------|


          E  E  E  E  E  E  E  E
-------|--------------------------|-------|-------|
-------|--------------------------|-------|-------|
-------|--------------------------|-------|-------|
-------|--------------------------|-------|-------|
-------|--5--------3-----3--5--3--|-------|-------|
-------|--------------------------|-------|-------|


  E  E  E  E  E  E  E  E     E  E  E  E  E  E  E  E
--------------------------|--------------------------|
--------------------------|--------------------------|
--------------------------|--------------------------|
--------------------------|--------------------------|
--------5--------3--------|--5--------3-----3--5--3--|
--------------------------|--------------------------|


                  E  E  E  E  E  E  E  E
-------|-------|--------------------------|
-------|-------|--------------------------|
-------|-------|--------------------------|
-------|-------|--------------------------|
-------|-------|--------5--------3--------|
-------|-------|--------------------------|


  E  E  E  E  E  E  E  E
--------------------------|-------|-------|
--------------------------|-------|-------|
--------------------------|-------|-------|
--------------------------|-------|-------|
--5--------3-----3--5--3--|-------|-------|
--------------------------|-------|-------|


  Drum beat kicks in...
  E                     E  E  E  E  E  E  E
---------------------------------------------|
---------------------------------------------|
---------------------------------------------|
---------------------------------------------|
---------------------------5--------3--------|
---------------------------------------------|


  E  E  E  E  E  E  E  E
--------------------------|-----|-----|
--------------------------|-----|-----|
--------------------------|-----|-----|
--------------------------|-----|-----|
--5--------3-----3--5--3--|-----|-----|
--------------------------|-----|-----|


  E  E  E  E  E  E  E  E     E  E  E  E  E  E  E  E
--------------------------|--------------------------|
--------------------------|--------------------------|
--------------------------|--------------------------|
--------------------------|--------------------------|
--------5--------3--------|--5--------3-----3--5--3--|
--------------------------|--------------------------|


              E  E  E  E  E  E  E  E
-----|-----|--------------------------|
-----|-----|--------------------------|
-----|-----|--------------------------|
-----|-----|--------------------------|
-----|-----|--------5--------3--------|
-----|-----|--------------------------|


  E  E  E  E  E  E  E  E
--------------------------|-----|-----|
--------------------------|-----|-----|
--------------------------|-----|-----|
--------------------------|-----|-----|
--5--------3-----3--5--3--|-----|-----|
--------------------------|-----|-----|


  E  E  E  E  E  E  E  E     E  E  E  E  E  E  E  E
--------------------------|--------------------------|
--------------------------|--------------------------|
--------------------------|--------------------------|
--------------------------|--------------------------|
--------5--------3--------|--5--------3-----3--5--3--|
--------------------------|--------------------------|


              E  E  E  E  E  E  E  E
-----|-----|--------------------------|
-----|-----|--------------------------|
-----|-----|--------------------------|
-----|-----|--------------------------|
-----|-----|--------5--------3--------|
-----|-----|--------------------------|


  E  E  E  E  E  E  E  E     W
--------------------------|--0----------------|
--------------------------|--0----------------|
--------------------------|-------------------|
--------------------------|-------------------|
--5--------3-----3--5--3--|-------------------|
--------------------------|-------------------|


  E  E  E  E  E  E  Q        H         Q     Q
--L--L--L--L--L--L--------|------------------------|
--L--L--L--L--L--L--5~----|--6~--------L~----6~----|
--------------------------|------------------------|
--------------------------|------------------------|
--------------------------|------------------------|
--------------------------|------------------------|


  W
-------------------|
--L----------------|
-------------------|
-------------------|
-------------------|
-------------------|


   E    E    E    E    E    E    E    E
--13~--12~--12~--10~--10~--10~------------|
--------------------------------13~--13~--|
------------------------------------------|
------------------------------------------|
------------------------------------------|
------------------------------------------|


   E    E    E    E    E    E    E    E
------------------------------------------|
--13~--12~--12~--12~--10~--10~--10~--13~--|
------------------------------------------|
------------------------------------------|
------------------------------------------|
------------------------------------------|


   H         Q     E    E
----------------------------|
--12~--------L----12~--10~--|
----------------------------|
----------------------------|
----------------------------|
----------------------------|


   E    E    H         Q        W
----------------------------|--12~----------------|
--12~--13~--12~--------L----|---------------------|
----------------------------|---------------------|
----------------------------|---------------------|
----------------------------|---------------------|
----------------------------|---------------------|


  W                   E  E  E  E  E  E  E  E
--L----------------|--------------------------|
-------------------|--------------------------|
-------------------|--------------------------|
-------------------|--------------------------|
-------------------|--------5--------3--------|
-------------------|--------------------------|


  E  E  E  E  E  E  E  E
--------------------------|-----|-----|
--------------------------|-----|-----|
--------------------------|-----|-----|
--------------------------|-----|-----|
--5--------3-----3--5--3--|-----|-----|
--------------------------|-----|-----|


  E  E  E  E  E  E  E  E     E  E  E  E  E  E  E  E
--------------------------|--------------------------|
--------------------------|--------------------------|
--------------------------|--------------------------|
--------------------------|--------------------------|
--------5--------3--------|--5--------3-----3--5--3--|
--------------------------|--------------------------|


              E  E  E  E  E  E  E  E
-----|-----|--------------------------|
-----|-----|--------------------------|
-----|-----|--------------------------|
-----|-----|--------------------------|
-----|-----|--------5--------3--------|
-----|-----|--------------------------|


  E  E  E  E  E  E  E  E
--------------------------|-----|-----|
--------------------------|-----|-----|
--------------------------|-----|-----|
--------------------------|-----|-----|
--5--------3-----3--5--3--|-----|-----|
--------------------------|-----|-----|


  E  E  E  E  E  E  E  E     E  E  E  E  E  E  E  E
--------------------------|--------------------------|
--------------------------|--------------------------|
--------------------------|--------------------------|
--------------------------|--------------------------|
--------5--------3--------|--5--------3-----3--5--3--|
--------------------------|--------------------------|


  E  E  E   E  E  E  E  E
---------------------------|
---------------------------|
--9--9--9--10--9--9--9--9--|
---------------------------|
---------------------------|
---------------------------|


  E  E  E    E  E  E  E  E
----------------------------|
----------------------------|
--9--9--7s--10--9--9--9--9--|
----------------------------|
----------------------------|
----------------------------|


  E  E  E   E  E  E  E  E
---------------------------|
---------------------------|
--9--9--9--10--9--9--9--9--|
---------------------------|
---------------------------|
---------------------------|


  E  E  E    E  E  E  E  E
----------------------------|
----------------------------|
--9--9--7s--10--9--9--9--9--|
----------------------------|
----------------------------|
----------------------------|


  E  E  E   E  E  E  E  E
---------------------------|
---------------------------|
--9--9--9--10--9--9--9--9--|
---------------------------|
---------------------------|
---------------------------|


  E  E  E    E  E  E  E  E
----------------------------|
----------------------------|
--9--9--7s--10--9--9--9--9--|
----------------------------|
----------------------------|
----------------------------|


  E  E  E   E  E  E  E  E
---------------------------|
---------------------------|
--9--9--9--10--9--9--9--9--|
---------------------------|
---------------------------|
---------------------------|


  E  E  E    E  E  E  E  E     E  E  E  E  E  E  E  E
----------------------------|--------------------7--L--|
----------------------------|--------------------5--L--|
--9--9--7s--10--9--9--9--9--|--------------------------|
----------------------------|--------------------------|
----------------------------|--------------------------|
----------------------------|--------------------------|


  Q    Q    Q    Q       Q    E  E  E  E  Q
--L----8----L----L----|--0----L--0--0--1--0----|
--L----6----L----L----|--0----L----------------|
----------------------|------------------------|
----------------------|------------------------|
----------------------|------------------------|
----------------------|------------------------|


  E  E  E  E  E  E  E  E     E  E  E  E  E  E  E  E
--L--0--L--0--0--1--0--L--|--------------------7--L--|
--------------------------|--------------------5--L--|
--------------------------|--------------------------|
--------------------------|--------------------------|
--------------------------|--------------------------|
--------------------------|--------------------------|


  Q    Q    Q    Q       Q    E  E  E  E  Q
--L----8----L----L----|--0----L--0--0--1--0----|
--L----6----L----L----|--0----L----------------|
----------------------|------------------------|
----------------------|------------------------|
----------------------|------------------------|
----------------------|------------------------|


  E  E  E  E  E  E  E  E     E  E  E  E  E  E  E  E
--L--0--L--0--0--1--0--L--|--------------------7--L--|
--------------------------|--------------------5--L--|
--------------------------|--------------------------|
--------------------------|--------------------------|
--------------------------|--------------------------|
--------------------------|--------------------------|


  Q    Q    Q    Q       Q    E  E  E  E  Q
--L----8----L----L----|--0----L--0--0--1--0----|
--L----6----L----L----|--0----L----------------|
----------------------|------------------------|
----------------------|------------------------|
----------------------|------------------------|
----------------------|------------------------|


  E  E  E  E  E  E  E  E     E  E  E  E  E  E  E  E
--L--0--L--0--0--1--0--L--|--------------------7--L--|
--------------------------|--------------------5--L--|
--------------------------|--------------------------|
--------------------------|--------------------------|
--------------------------|--------------------------|
--------------------------|--------------------------|


  Q    Q    Q    Q       Q    E  E  E  E  Q
--L----8----L----L----|--0----L--0--0--1--0----|
--L----6----L----L----|--0----L----------------|
----------------------|------------------------|
----------------------|------------------------|
----------------------|------------------------|
----------------------|------------------------|


  E  E  E  E  E  E  E  E     E  E  E  E  E  E  E  E
--------------------------|--------------------------|
--------------------------|--6--5--5--6--5--5--6--5--|
--------------------------|--------------------------|
--8--7--5-----------------|--------------------------|
-----------8--7--5--------|--------------------------|
--------------------7--5--|--------------------------|


  E  E  E  E  E  E  E  E     E  E  E  E  E  E  E  E
--------------------------|--------------------------|
--5--6--5--5--6--5--5--5--|--6--5--5--6--5--5--6--5--|
--------------------------|--------------------------|
--------------------------|--------------------------|
--------------------------|--------------------------|
--------------------------|--------------------------|


  E  E  E  E  E  E  E  E     E  E  E  E  E  E  E  E
--------------------------|--------------------------|
--5--6--5--5--6--5--5--5--|--6--5--5--6--5--5--6--5--|
--------------------------|--------------------------|
--------------------------|--------------------------|
--------------------------|--------------------------|
--------------------------|--------------------------|


  E  E  E  E  E  E  E  E     E  E  E  E  E  E  E  E
--------------------------|--------------------------|
--5--6--5--5--6--5--5--5--|--6--5--5--6--5--5--6--5--|
--------------------------|--------------------------|
--------------------------|--------------------------|
--------------------------|--------------------------|
--------------------------|--------------------------|


  E  E  E  E  E  E  E  E
--------------------------|
--5--6--5--5--6--5--5--5--|
--------------------------|
--------------------------|
--------------------------|
--------------------------|


  S S S S S S S S S S S S S S S S
----------------------------------|
----------------------------------|
--------------------------9-9-9-9-|
--2-2-2-2-2-2-3-3-3-3-3-3---------|
----------------------------------|
----------------------------------|


  S S S S S S S S S S S S S S S S
----------------------------------|
----------------------------------|
--9-9-5-5-5-5-5-5-4-4-4-4-0-0-0-0-|
----------------------------------|
----------------------------------|
----------------------------------|


  S S S S S S S S S S S S S S S S
----------------------------------|
----------------------------------|
----------------------------------|
--3-3-3-3-3-3-5-5-5-5-5-5-7-7-7-7-|
----------------------------------|
----------------------------------|


  S S S S S S S S  S  S  S  S S S S S
--------------------------------------|
--------------------------------------|
--------------------------------------|
--7-7-9-9-9-9-9-9-10-10-10-10-9-9-9-9-|
--------------------------------------|
--------------------------------------|


  S S S S S S S S S S S S S S S S
----------------------------------|
----------------------------------|
--------------------------9-9-9-9-|
--2-2-2-2-2-2-3-3-3-3-3-3---------|
----------------------------------|
----------------------------------|


  S S S S S S S S S S S S S S S S
----------------------------------|
----------------------------------|
--9-9-5-5-5-5-5-5-4-4-4-4-0-0-0-0-|
----------------------------------|
----------------------------------|
----------------------------------|


  S S S S S S S S S S S S S S S S
----------------------------------|
----------------------------------|
----------------------------------|
--3-3-3-3-3-3-2-2-2-2-2-2-0-0-0-0-|
----------------------------------|
----------------------------------|


  S S S S S S S S S S S S S S S S
----------------------------------|----|----|----|----|
----------------------------------|----|----|----|----|
----------------------------------|----|----|----|----|
--0-0-----------------------------|----|----|----|----|
------3-3-3-3-3-3-2-2-2-2-0-0-0-0-|----|----|----|----|
----------------------------------|----|----|----|----|


----|----|----|----|----|----|----|----|----|----|----|
----|----|----|----|----|----|----|----|----|----|----|
----|----|----|----|----|----|----|----|----|----|----|
----|----|----|----|----|----|----|----|----|----|----|
----|----|----|----|----|----|----|----|----|----|----|
----|----|----|----|----|----|----|----|----|----|----|


       E  E  E   E  E  E  E  E
----|---------------------------|
----|---------------------------|
----|--9--9--9--10--9--9--9--9--|
----|---------------------------|
----|---------------------------|
----|---------------------------|


  E  E  E    E  E  E  E  E
----------------------------|
----------------------------|
--9--9--7s--10--9--9--9--9--|
----------------------------|
----------------------------|
----------------------------|


  E  E  E   E  E  E  E  E
---------------------------|
---------------------------|
--9--9--9--10--9--9--9--9--|
---------------------------|
---------------------------|
---------------------------|


  E  E  E    E  E  E  E  E
----------------------------|
----------------------------|
--9--9--7s--10--9--9--9--9--|
----------------------------|
----------------------------|
----------------------------|


  E  E  E   E  E  E  E  E
---------------------------|
---------------------------|
--9--9--9--10--9--9--9--9--|
---------------------------|
---------------------------|
---------------------------|


  E  E  E    E  E  E  E  E
----------------------------|
----------------------------|
--9--9--7s--10--9--9--9--9--|
----------------------------|
----------------------------|
----------------------------|


  E  E  E   E  E  E  E  E
---------------------------|
---------------------------|
--9--9--9--10--9--9--9--9--|
---------------------------|
---------------------------|
---------------------------|


  E  E  E    E  E  E  E  E     E  E  E  E  E  E  E  E
----------------------------|--------------------7--L--|
----------------------------|--------------------5--L--|
--9--9--7s--10--9--9--9--9--|--------------------------|
----------------------------|--------------------------|
----------------------------|--------------------------|
----------------------------|--------------------------|


  Q    Q    Q    Q       Q    E  E  E  E  Q
--L----8----L----L----|--0----L--0--0--1--0----|
--L----6----L----L----|--0----L----------------|
----------------------|------------------------|
----------------------|------------------------|
----------------------|------------------------|
----------------------|------------------------|


  E  E  E  E  E  E  E  E     E  E  E  E  E  E  E  E
--L--0--L--0--0--1--0--L--|--------------------7--L--|
--------------------------|--------------------5--L--|
--------------------------|--------------------------|
--------------------------|--------------------------|
--------------------------|--------------------------|
--------------------------|--------------------------|


  Q    Q    Q    Q       Q    E  E  E  E  Q
--L----8----L----L----|--0----L--0--0--1--0----|
--L----6----L----L----|--0----L----------------|
----------------------|------------------------|
----------------------|------------------------|
----------------------|------------------------|
----------------------|------------------------|


  E  E  E  E  E  E  E  E     E  E  E  E  E  E  E  E
--L--0--L--0--0--1--0--L--|--------------------7--L--|
--------------------------|--------------------5--L--|
--------------------------|--------------------------|
--------------------------|--------------------------|
--------------------------|--------------------------|
--------------------------|--------------------------|


  Q    Q    Q    Q       Q    E  E  E  E  Q
--L----8----L----L----|--0----L--0--0--1--0----|
--L----6----L----L----|--0----L----------------|
----------------------|------------------------|
----------------------|------------------------|
----------------------|------------------------|
----------------------|------------------------|


  E  E  E  E  E  E  E  E     E  E  E  E  E  E  E  E
--L--0--L--0--0--1--0--L--|--------------------7--L--|
--------------------------|--------------------5--L--|
--------------------------|--------------------------|
--------------------------|--------------------------|
--------------------------|--------------------------|
--------------------------|--------------------------|


  Q    Q    Q    Q       Q    E  E  E  E  Q
--L----8----L----L----|--0----L--0--0--1--0----|
--L----6----L----L----|--0----L----------------|
----------------------|------------------------|
----------------------|------------------------|
----------------------|------------------------|
----------------------|------------------------|


  E  E  E  E  E  E  E  E     E  E  E  E  E  E  E  E
--------------------------|--------------------7--L--|
--------------------------|--------------------5--L--|
--------------------------|--------------------------|
--8--7--5-----------------|--------------------------|
-----------8--7--5--------|--------------------------|
--------------------7--5--|--------------------------|


  Q    Q    Q    Q       Q    E  E  E  E  Q
--L----8----L----L----|--0----L--0--0--1--0----|
--L----6----L----L----|--0----L----------------|
----------------------|------------------------|
----------------------|------------------------|
----------------------|------------------------|
----------------------|------------------------|


  E  E  E  E  E  E  E  E     E  E  E  E  E  E  E  E
--L--0--L--0--0--1--0--L--|--------------------7--L--|
--------------------------|--------------------5--L--|
--------------------------|--------------------------|
--------------------------|--------------------------|
--------------------------|--------------------------|
--------------------------|--------------------------|


  Q    Q    Q    Q       Q    E  E  E  E  Q
--L----8----L----L----|--0----L--0--0--1--0----|
--L----6----L----L----|--0----L----------------|
----------------------|------------------------|
----------------------|------------------------|
----------------------|------------------------|
----------------------|------------------------|


  E  E  E  E  E  E  E  E     E  E  E  E  E  E  E  E
--L--0--L--0--0--1--0--L--|--------------------7--L--|
--------------------------|--------------------5--L--|
--------------------------|--------------------------|
--------------------------|--------------------------|
--------------------------|--------------------------|
--------------------------|--------------------------|


  Q    Q    Q    Q       Q    E  E  E  E  Q
--L----8----L----L----|--0----L--0--0--1--0----|
--L----6----L----L----|--0----L----------------|
----------------------|------------------------|
----------------------|------------------------|
----------------------|------------------------|
----------------------|------------------------|


  E  E  E  E  E  E  E  E     E  E  E  E  E  E  E  E
--L--0--L--0--0--1--0--L--|--------------------7--L--|
--------------------------|--------------------5--L--|
--------------------------|--------------------------|
--------------------------|--------------------------|
--------------------------|--------------------------|
--------------------------|--------------------------|


  Q    Q    Q    Q       Q    E  E  E  E  Q
--L----8----L----L----|--0----L--0--0--1--0----|
--L----6----L----L----|--0----L----------------|
----------------------|------------------------|
----------------------|------------------------|
----------------------|------------------------|
----------------------|------------------------|


  E  E  E  E  E  E  E  E     E   E  E  Q     E  E  E
--------------------------|---------------------------|
--------------------------|--8--10--8-----------------|
--------------------------|------------9~----L--L--L--|
--8--7--5-----------------|---------------------------|
-----------8--7--5--------|---------------------------|
--------------------7--5--|---------------------------|


  E   E  E  Q     E  E  E     E   E  E  Q     E  E  E
---------------------------|---------------------------|
--8--10--8-----------------|--8--10--8-----------------|
------------9~----L--L--L--|------------9~----L--7--5--|
---------------------------|---------------------------|
---------------------------|---------------------------|
---------------------------|---------------------------|


  E  E  E   E  E  E  E  E     E   E  E  Q     E  E  E
---------------------------|---------------------------|
---------------------------|--8--10--8-----------------|
--7--9--7~--L--L--L--9--7--|------------9~----L--9--7--|
---------------------------|---------------------------|
---------------------------|---------------------------|
---------------------------|---------------------------|


  E   E  E  Q     E  E  E
---------------------------|
--8--10--8-----------------|
------------9~----L--7--5--|
---------------------------|
---------------------------|
---------------------------|


  E  E  E   E  E  E  T T E  S
------------------------------|
------------------------------|
--7--9--7~--L--L--L--7-9-7--L-|
------------------------------|
------------------------------|
------------------------------|


  E  E  E  E  E  E  E  E     Q     E  E  E   E  E   E
--------------------------|----------------------------|
--5--6--5-----5--------5--|----------------------------|
-----------7-----5--7-----|----------------------------|
--------------------------|----------------------------|
--------------------------|--7~----L--7--8--10--7~--L--|
--------------------------|----------------------------|


  E  E  E  E   E  E  E  E
---------------------------|
---------------------------|
---------------------------|
---------------------------|
--L--5--7--8--10--7--5--8--|
---------------------------|


  S T E  T  E  E  E  E  E  E
------------------------------|
------------------------------|
------------------------------|
------------------------------|
--7-8-7--L-10--8--7--8--5--7--|
------------------------------|


  E  E  E   E  E  E  E  E     E  E  E  E  E  E  E  E
---------------------------|--------------------------|
---------------------------|--------------------------|
---------------------------|--------------------------|
--5--7--9--10--9--7--5--7--|--7--9--9--7--7--7--5--5--|
---------------------------|--------------------------|
---------------------------|--------------------------|


  E  E  E  E  E  E  E   E
---------------------------|
---------------------------|
---------------------------|
--5--7--7--7--9--9--9--10--|
---------------------------|
---------------------------|


  E  E  E  E  E   E   E  E
----------------------------|
-------------------------8--|
--5--7--7--9--9--10--10-----|
----------------------------|
----------------------------|
----------------------------|


  E   E   E   E   E   E  E   E
--------------------------------|
--8--10--10--12--12~--L--L\-----|
--------------------------------|
--------------------------------|
--------------------------------|
--------------------------------|


  E  E  E   E   E  E  E  E
----------------------------|
--8--5--7~--L~--L--L--7--5--|
----------------------------|
----------------------------|
----------------------------|
----------------------------|


  E   E  E   E  E  E   E  E
-----------------------------|
--8--10--8~--L--L--L---L--L--|
-----------------------------|
-----------------------------|
-----------------------------|
-----------------------------|


   E  E  E  E  E  E  E  E     E  E  E  Q      E  E  E
---------------------------|---------------------------|
--10--8--8--5--5-----------|---------------------------|
------------------4--7--5--|--7--5--7--7br----5--4--7--|
---------------------------|---------------------------|
---------------------------|---------------------------|
---------------------------|---------------------------|


  S S E  Q    E   E  E  E
---------------------------|
---------------------------|
---------------------------|
--5-7-4--5----L\-----------|
---------------------------|
---------------------------|


  S  S E  Q     E   E  E  E
-----------------------------|
--8-10-7--8~----L\-----7--8--|
-----------------------------|
-----------------------------|
-----------------------------|
-----------------------------|


  Q      E  E  E  E  E  E
--8br----------8--7--5--7--|
---------7--8--------------|
---------------------------|
---------------------------|
---------------------------|
---------------------------|


  Q      E  E  E    E  E  E
--7br----------5br--L--------|
---------7--8----------7--8--|
-----------------------------|
-----------------------------|
-----------------------------|
-----------------------------|


  E  E  E  E  E  E  E  E
--------------------------||
--5-----------------------||
--------------------------||
--------------------------||
--------------------------||
--------------------------||





Rythym part



      E  E  E  E  E  E  E  E
C#||--------------------------|
G#||--5--5--5--6--6--6--8--8--|
E ||--------------------------|
B ||--------------------------|
F#||--------------------------|
B ||--------------------------|


  E  E  E  E  E  E  E  E     E  E  E  E  E  E  E  E
--------------------------|--5--5--5--5--5--5--5--5--|
--8--6--6--6--6--6--5--6--|--------------------------|
--------------------------|--------------------------|
--------------------------|--------------------------|
--------------------------|--------------------------|
--------------------------|--------------------------|


  E  E  E  E  E  E  E  E     E  E  E  E  E  E  E  E
--5--5--5--5--5--5--5--5--|--------------------------|
--------------------------|--5--5--5--6--6--6--8--8--|
--------------------------|--------------------------|
--------------------------|--------------------------|
--------------------------|--------------------------|
--------------------------|--------------------------|


  E  E  E  E  E  E  E  E     E  E  E  E  E  E  E  E
--------------------------|--5--5--5--5--5--5--5--5--|
--8--6--6--6--6--6--5--6--|--------------------------|
--------------------------|--------------------------|
--------------------------|--------------------------|
--------------------------|--------------------------|
--------------------------|--------------------------|


  E  E  E  E  E  E  E  E     W
--5--5--5--5--5--5--5--5--|-------------------|
--------------------------|-------------------|
--------------------------|-------------------|
--------------------------|--2----------------|
--------------------------|--2----------------|
--------------------------|--2----------------|


  W                   W
-------------------|-------------------|
-------------------|-------------------|
-------------------|-------------------|
--L----------------|--3----------------|
--L----------------|--3----------------|
--L----------------|--3----------------|


  W                   W
-------------------|-------------------|
-------------------|-------------------|
-------------------|-------------------|
--L----------------|--2----------------|
--L----------------|--2----------------|
--L----------------|--2----------------|


  W                   W
-------------------|-------------------|
-------------------|-------------------|
-------------------|-------------------|
--L----------------|--3----------------|
--L----------------|--3----------------|
--L----------------|--3----------------|


                         PM PM    PM PM    PM
  W                   E  E  E  E  E  E  E  E
-------------------|--------------------------|
-------------------|--------------------------|
-------------------|--------------------------|
--L----------------|--2--------3--------5-----|
--L----------------|--2--2--2--3--3--3--5--5--|
--L----------------|--2--2--2--3--3--3--5--5--|


  PM    PM PM PM PM PM PM    PM PM    PM PM    PM PM
  E  E  E  E  E  E  E  E     E  E  E  E  E  E  E  E
--------------------------|--------------------------|
--------------------------|--------------------------|
--------------------------|--------------------------|
-----3--------------------|--------------------------|
--5--3--3--3--2--2--3--2--|--------3--------2--------|
--5--3--3--3--2--2--3--2--|--2--2-----2--2-----2--2--|


     PM PM                      PM PM    PM PM    PM
  E  E  E  E  E  E  E  E     E  E  E  E  E  E  E  E
--------------------------|--------------------------|
--------------------------|--------------------------|
--------------------------|--------------------------|
--------------------------|--2--------3--------5-----|
--3--------2-----3--5--3--|--2--2--2--3--3--3--5--5--|
-----2--2-----------------|--2--2--2--3--3--3--5--5--|


  PM    PM PM PM PM PM PM    PM PM    PM PM    PM PM
  E  E  E  E  E  E  E  E     E  E  E  E  E  E  E  E
--------------------------|--------------------------|
--------------------------|--------------------------|
--------------------------|--------------------------|
-----3--------------------|--------------------------|
--5--3--3--3--2--2--3--2--|--------3--------2--------|
--5--3--3--3--2--2--3--2--|--2--2-----2--2-----2--2--|


     PM PM                      PM PM    PM PM    PM
  E  E  E  E  E  E  E  E     E  E  E  E  E  E  E  E
--------------------------|--------------------------|
--------------------------|--------------------------|
--------------------------|--------------------------|
--------------------------|--2--------3--------5-----|
--3--------2-----3--5--3--|--2--2--2--3--3--3--5--5--|
-----2--2-----------------|--2--2--2--3--3--3--5--5--|


  PM    PM PM PM PM PM PM    PM PM    PM PM    PM PM
  E  E  E  E  E  E  E  E     E  E  E  E  E  E  E  E
--------------------------|--------------------------|
--------------------------|--------------------------|
--------------------------|--------------------------|
-----3--------------------|--------------------------|
--5--3--3--3--2--2--3--2--|--------3--------2--------|
--5--3--3--3--2--2--3--2--|--2--2-----2--2-----2--2--|


     PM PM                      PM PM    PM PM    PM
  E  E  E  E  E  E  E  E     E  E  E  E  E  E  E  E
--------------------------|--------------------------|
--------------------------|--------------------------|
--------------------------|--------------------------|
--------------------------|--2--------3--------5-----|
--3--------2-----3--5--3--|--2--2--2--3--3--3--5--5--|
-----2--2-----------------|--2--2--2--3--3--3--5--5--|


  PM    PM PM                PM PM    PM PM    PM PM
  E  E  E  E  E  E  E  E     E  E  E  E  E  E  E  E
--------------------------|--------------------------|
--------------------------|--------------------------|
--------------------------|--------------------------|
-----3--------------------|--------------------------|
--5--3--3--3--2--2--3--2--|--------3--------2--------|
--5--3--3--3--2--2--3--2--|--2--2-----2--2-----2--2--|


     PM PM                   PM PM PM PM PM PM PM PM
  E  E  E  E  E  E  E  E     E  E  E  E  E  E  E  E
--------------------------|--------------------------|
--------------------------|--------------------------|
--------------------------|--------------------------|
--------------------------|--------------------------|
--3--------2-----3--5--3--|--2--2--2--3--3--3--5--5--|
-----2--2-----------------|--2--2--2--3--3--3--5--5--|


  PM PM PM PM PM PM PM PM    PM PM    PM PM    PM PM
  E  E  E  E  E  E  E  E     E  E  E  E  E  E  E  E
--------------------------|--------------------------|
--------------------------|--------------------------|
--------------------------|--------------------------|
--------------------------|--------------------------|
--5--3--3--3--2--2--3--2--|--------3--------2--------|
--5--3--3--3--2--2--3--2--|--2--2-----2--2-----2--2--|


     PM PM                   PM PM PM PM PM PM PM PM
  E  E  E  E  E  E  E  E     E  E  E  E  E  E  E  E
--------------------------|--------------------------|
--------------------------|--------------------------|
--------------------------|--------------------------|
--------------------------|--------------------------|
--3--------2-----3--5--3--|--2--2--2--3--3--3--5--5--|
-----2--2-----------------|--2--2--2--3--3--3--5--5--|


  PM PM PM PM PM PM PM PM    PM PM    PM PM    PM PM
  E  E  E  E  E  E  E  E     E  E  E  E  E  E  E  E
--------------------------|--------------------------|
--------------------------|--------------------------|
--------------------------|--------------------------|
--------------------------|--------------------------|
--5--3--3--3--2--2--3--2--|--------3--------2--------|
--5--3--3--3--2--2--3--2--|--2--2-----2--2-----2--2--|


     PM PM                   PM PM PM PM PM PM PM PM
  E  E  E  E  E  E  E  E     E  E  E  E  E  E  E  E
--------------------------|--------------------------|
--------------------------|--------------------------|
--------------------------|--------------------------|
--------------------------|--------------------------|
--3--------2-----3--5--3--|--2--2--2--3--3--3--5--5--|
-----2--2-----------------|--2--2--2--3--3--3--5--5--|


  PM PM PM PM PM PM PM PM    PM PM    PM PM    PM PM
  E  E  E  E  E  E  E  E     E  E  E  E  E  E  E  E
--------------------------|--------------------------|
--------------------------|--------------------------|
--------------------------|--------------------------|
--------------------------|--------------------------|
--5--3--3--3--2--2--3--2--|--------3--------2--------|
--5--3--3--3--2--2--3--2--|--2--2-----2--2-----2--2--|


     PM PM                   PM PM PM PM PM PM PM PM
  E  E  E  E  E  E  E  E     E  E  E  E  E  E  E  E
--------------------------|--------------------------|
--------------------------|--------------------------|
--------------------------|--------------------------|
--------------------------|--------------------------|
--3--------2-----3--5--3--|--2--2--2--3--3--3--5--5--|
-----2--2-----------------|--2--2--2--3--3--3--5--5--|


  PM PM PM PM PM PM PM PM    PM PM    PM PM    PM PM
  E  E  E  E  E  E  E  E     E  E  E  E  E  E  E  E
--------------------------|--------------------------|
--------------------------|--------------------------|
--------------------------|--------------------------|
--------------------------|--------------------------|
--5--3--3--3--2--2--3--2--|--------3--------2--------|
--5--3--3--3--2--2--3--2--|--2--2-----2--2-----2--2--|


     PM PM
  E  E  E  E  E  E  E  E     E  E  E  E  E  E  E  E
--------------------------|--------------------------|
--------------------------|--5--5--5--6--6--6--8--8--|
--------------------------|--------------------------|
--------------------------|--------------------------|
--3--------2-----3--5--3--|--------------------------|
-----2--2-----------------|--------------------------|


  E  E  E  E  E  E  E  E     E  E  E  E  E  E  E  E
--------------------------|--5--5--5--5--5--5--5--5--|
--8--6--6--6--6--6--5--6--|--------------------------|
--------------------------|--------------------------|
--------------------------|--------------------------|
--------------------------|--------------------------|
--------------------------|--------------------------|


  E  E  E  E  E  E  E  E     E  E  E  E  E  E  E  E
--5--5--5--5--5--5--5--5--|--------------------------|
--------------------------|--5--5--5--6--6--6--8--8--|
--------------------------|--------------------------|
--------------------------|--------------------------|
--------------------------|--------------------------|
--------------------------|--------------------------|


  E  E  E  E  E  E  E  E     E  E  E  E  E  E  E  E
--------------------------|--5--5--5--5--5--5--5--5--|
--8--6--6--6--6--6--5--6--|--------------------------|
--------------------------|--------------------------|
--------------------------|--------------------------|
--------------------------|--------------------------|
--------------------------|--------------------------|


                             PM PM PM PM PM PM PM PM
  E  E  E  E  E  E  E  E     E  E  E  E  E  E  E  E
--5--5--5--5--5--5--5--5--|--------------------------|
--------------------------|--------------------------|
--------------------------|--------------------------|
--------------------------|--------------------------|
--------------------------|--2--2--2--3--3--3--5--5--|
--------------------------|--2--2--2--3--3--3--5--5--|


  PM PM PM PM PM PM PM PM    PM PM    PM PM    PM PM
  E  E  E  E  E  E  E  E     E  E  E  E  E  E  E  E
--------------------------|--------------------------|
--------------------------|--------------------------|
--------------------------|--------------------------|
--------------------------|--------------------------|
--5--3--3--3--2--2--3--2--|--------3--------2--------|
--5--3--3--3--2--2--3--2--|--2--2-----2--2-----2--2--|


     PM PM                   PM PM PM PM PM PM PM PM
  E  E  E  E  E  E  E  E     E  E  E  E  E  E  E  E
--------------------------|--------------------------|
--------------------------|--------------------------|
--------------------------|--------------------------|
--------------------------|--------------------------|
--3--------2-----3--5--3--|--2--2--2--3--3--3--5--5--|
-----2--2-----------------|--2--2--2--3--3--3--5--5--|


  PM PM PM PM PM PM PM PM    PM PM    PM PM    PM PM
  E  E  E  E  E  E  E  E     E  E  E  E  E  E  E  E
--------------------------|--------------------------|
--------------------------|--------------------------|
--------------------------|--------------------------|
--------------------------|--------------------------|
--5--3--3--3--2--2--3--2--|--------3--------2--------|
--5--3--3--3--2--2--3--2--|--2--2-----2--2-----2--2--|


     PM PM                   PM PM PM PM PM PM PM PM
  E  E  E  E  E  E  E  E     E  E  E  E  E  E  E  E
--------------------------|--------------------------|
--------------------------|--------------------------|
--------------------------|--------------------------|
--------------------------|--------------------------|
--3--------2-----3--5--3--|--2--2--2--3--3--3--5--5--|
-----2--2-----------------|--2--2--2--3--3--3--5--5--|


  PM PM PM PM PM PM PM PM    PM PM    PM PM    PM PM
  E  E  E  E  E  E  E  E     E  E  E  E  E  E  E  E
--------------------------|--------------------------|
--------------------------|--------------------------|
--------------------------|--------------------------|
--------------------------|--------------------------|
--5--3--3--3--2--2--3--2--|--------3--------2--------|
--5--3--3--3--2--2--3--2--|--2--2-----2--2-----2--2--|


     PM PM                   PM PM PM PM PM PM PM PM
  E  E  E  E  E  E  E  E     E  E  E  E  E  E  E  E
--------------------------|--------------------------|
--------------------------|--------------------------|
--------------------------|--------------------------|
--------------------------|--------------------------|
--3--------2-----3--5--3--|--2--2--2--3--3--3--5--5--|
-----2--2-----------------|--2--2--2--3--3--3--5--5--|


  PM PM PM PM PM PM PM PM    PM PM    PM PM    PM PM
  E  E  E  E  E  E  E  E     E  E  E  E  E  E  E  E
--------------------------|--------------------------|
--------------------------|--------------------------|
--------------------------|--------------------------|
--------------------------|--------------------------|
--5--3--3--3--2--2--3--2--|--------3--------2--------|
--5--3--3--3--2--2--3--2--|--2--2-----2--2-----2--2--|


     PM PM
  E  E  E  E  E  E  E  E     W
--------------------------|-------------------|
--------------------------|-------------------|
--------------------------|-------------------|
--------------------------|--2----------------|
--3--------2-----3--5--3--|--2----------------|
-----2--2-----------------|--2----------------|


  W                   W
-------------------|-------------------|
-------------------|-------------------|
-------------------|-------------------|
--L----------------|--2----------------|
--L----------------|--2----------------|
--L----------------|--2----------------|


  W                   W
-------------------|-------------------|
-------------------|-------------------|
-------------------|-------------------|
--L----------------|--2----------------|
--L----------------|--2----------------|
--L----------------|--2----------------|


  W                   W
-------------------|-------------------|
-------------------|-------------------|
-------------------|-------------------|
--L----------------|--2----------------|
--L----------------|--2----------------|
--L----------------|--2----------------|


  W                   W
-------------------|-------------------|
-------------------|-------------------|
-------------------|-------------------|
--L----------------|--5----------------|
--L----------------|--5----------------|
--L----------------|--5----------------|


  H        E   E  E  E     W
------------------------|-------------------|
------------------------|-------------------|
------------------------|-------------------|
--L--------5s--7--L--7--|--2----------------|
--L--------5s--7--L--7--|--2----------------|
--L--------5s--7--L--7--|--2----------------|


  W                   W
-------------------|-------------------|
-------------------|-------------------|
-------------------|-------------------|
--L----------------|--5----------------|
--L----------------|--5----------------|
--L----------------|--5----------------|


  H        E   E  E  E     W
------------------------|-------------------|
------------------------|-------------------|
------------------------|-------------------|
--L--------5s--7--L--7--|--2----------------|
--L--------5s--7--L--7--|--2----------------|
--L--------5s--7--L--7--|--2----------------|


  W                   W
-------------------|-------------------|
-------------------|-------------------|
-------------------|-------------------|
--L----------------|--5----------------|
--L----------------|--5----------------|
--L----------------|--5----------------|


  H        E   E  E  E     W
------------------------|-------------------|
------------------------|-------------------|
------------------------|-------------------|
--L--------5s--7--L--7--|--2----------------|
--L--------5s--7--L--7--|--2----------------|
--L--------5s--7--L--7--|--2----------------|


  W                   W
-------------------|-------------------|
-------------------|-------------------|
-------------------|-------------------|
--L----------------|--5----------------|
--L----------------|--5----------------|
--L----------------|--5----------------|


  H        E   E  E  E     W
------------------------|-------------------|
------------------------|-------------------|
------------------------|-------------------|
--L--------5s--7--L--7--|--2----------------|
--L--------5s--7--L--7--|--2----------------|
--L--------5s--7--L--7--|--2----------------|


  W                    W
-------------------|--12~----------------|
-------------------|---------------------|
-------------------|---------------------|
--L----------------|---------------------|
--L----------------|---------------------|
--L----------------|---------------------|


   W                     W
---L~----------------|--12~----------------|
---------------------|---------------------|
---------------------|---------------------|
---------------------|---------------------|
---------------------|---------------------|
---------------------|---------------------|


   W                     E  E  E   E  E  E   E  E
---L~----------------|-----------------------------|
---------------------|--10--8--8--10--8--8--10--8--|
---------------------|-----------------------------|
---------------------|-----------------------------|
---------------------|-----------------------------|
---------------------|-----------------------------|


  E   E  E  E   E  E  E  E
----------------------------|
--8--10--8--8--10--8--8--8--|
----------------------------|
----------------------------|
----------------------------|
----------------------------|


   E  E  E   E  E  E   E  E
-----------------------------|
--10--8--8--10--8--8--10--8--|
-----------------------------|
-----------------------------|
-----------------------------|
-----------------------------|


  E   E  E  E   E  E  E  E
----------------------------|
--8--10--8--8--10--8--8--8--|
----------------------------|
----------------------------|
----------------------------|
----------------------------|


  PM PM PM PM PM PM PM PM PM PM PM PM PM PM PM PM
  S  S  S  S  S  S  S  S  S  S  S  S  S  S  S  S
--------------------------------------------------|
--------------------------------------------------|
--------------------------------------------------|
--------------------------------------------------|
--------------------------------------------------|
--2--2--2--2--2--2--3--3--3--3--3--3--2--2--2--2--|


  PM PM PM PM PM PM PM PM PM PM PM PM PM PM PM PM
  S  S  S  S  S  S  S  S  S  S  S  S  S  S  S  S
--------------------------------------------------|
--------------------------------------------------|
--------------------------------------------------|
--------------------------------------------------|
--------------------------------------------------|
--2--2--3--3--3--3--3--3--2--2--2--3--3--3--3--3--|


  PM PM PM PM PM PM PM PM PM PM PM PM PM PM PM PM
  S  S  S  S  S  S  S  S  S  S  S  S  S  S  S  S
--------------------------------------------------|
--------------------------------------------------|
--------------------------------------------------|
--------------------------------------------------|
--------------------------------------------------|
--2--2--2--2--2--2--3--3--3--3--3--3--2--2--2--2--|


  PM PM PM PM PM PM PM PM PM PM PM PM PM PM PM PM
  S  S  S  S  S  S  S  S  S  S  S  S  S  S  S  S
--------------------------------------------------|
--------------------------------------------------|
--------------------------------------------------|
--------------------------------------------------|
--------------------------------------------------|
--2--2--3--3--3--3--3--3--2--2--2--3--3--3--3--3--|


  PM PM PM PM PM PM PM PM PM PM PM PM PM PM PM PM
  S  S  S  S  S  S  S  S  S  S  S  S  S  S  S  S
--------------------------------------------------|
--------------------------------------------------|
--------------------------------------------------|
--------------------------------------------------|
--------------------------------------------------|
--2--2--2--2--2--2--3--3--3--3--3--3--2--2--2--2--|


  PM PM PM PM PM PM PM PM PM PM PM PM PM PM PM PM
  S  S  S  S  S  S  S  S  S  S  S  S  S  S  S  S
--------------------------------------------------|
--------------------------------------------------|
--------------------------------------------------|
--------------------------------------------------|
--------------------------------------------------|
--2--2--3--3--3--3--3--3--2--2--2--3--3--3--3--3--|


  PM PM PM PM PM PM PM PM PM PM PM PM PM PM PM PM
  S  S  S  S  S  S  S  S  S  S  S  S  S  S  S  S
--------------------------------------------------|
--------------------------------------------------|
--------------------------------------------------|
--------------------------------------------------|
--------------------------------------------------|
--2--2--2--2--2--2--3--3--3--3--3--3--2--2--2--2--|


  PM PM PM PM PM PM PM PM PM PM PM PM PM PM PM PM
  S  S  S  S  S  S  S  S  S  S  S  S  S  S  S  S
--------------------------------------------------|
--------------------------------------------------|
--------------------------------------------------|
--------------------------------------------------|
--------------------------------------------------|
--2--2--3--3--3--3--3--3--2--2--2--3--3--3--3--3--|


        PM PM PM PM PM
  E  E  E  E  E  E  E  E     E  E  E  E  E  E  E  E
--------------------------|--------------------------|
--------------------------|--------------------------|
--------------------------|--------------------------|
--2--L-----------------5--|-----3-----2-----3--2--0--|
--2--L--2--2--2--2--2--5--|-----3-----2-----3--2--0--|
--2--L--2--2--2--2--2--5--|-----3-----2-----3--2--0--|


       PM PM PM PM PM PM
  Q    E  E  E  E  E  E     E  E  E  E  E  E  E  E
-------------------------|--------------------------|
-------------------------|--------------------------|
-------------------------|--------------------------|
--3----------------------|-----3-----3-----3-----3--|
--3----3--3--3--3--3--3--|-----3-----3-----3-----3--|
--3----3--3--3--3--3--3--|-----3-----3-----3-----3--|


        PM PM PM PM PM
  E  E  E  E  E  E  E  E     E  E  E  E  E  E  E  E
--------------------------|--------------------------|
--------------------------|--------------------------|
--------------------------|--------------------------|
--2--L-----------------5--|-----3-----2-----3--2--0--|
--2--L--2--2--2--2--2--5--|-----3-----2-----3--2--0--|
--2--L--2--2--2--2--2--5--|-----3-----2-----3--2--0--|


       PM PM PM PM PM PM
  Q    E  E  E  E  E  E     E  E  E  E  E  E  E  E
-------------------------|--------------------------|
-------------------------|--------------------------|
-------------------------|--------------------------|
--3----------------------|-----3-----3-----3-----3--|
--3----3--3--3--3--3--3--|-----3-----3-----3-----3--|
--3----3--3--3--3--3--3--|-----3-----3-----3-----3--|


        PM PM PM PM PM
  E  E  E  E  E  E  E  E     E  E  E  E  E  E  E  E
--------------------------|--------------------------|
--------------------------|--------------------------|
--------------------------|--------------------------|
--2--L-----------------5--|-----3-----2-----3--2--0--|
--2--L--2--2--2--2--2--5--|-----3-----2-----3--2--0--|
--2--L--2--2--2--2--2--5--|-----3-----2-----3--2--0--|


       PM PM PM PM PM PM
  Q    E  E  E  E  E  E     E  E  E  E  E  E  E  E
-------------------------|--------------------------|
-------------------------|--------------------------|
-------------------------|--------------------------|
--3----------------------|-----3-----3-----3-----3--|
--3----3--3--3--3--3--3--|-----3-----3-----3-----3--|
--3----3--3--3--3--3--3--|-----3-----3-----3-----3--|


        PM PM PM PM PM
  E  E  E  E  E  E  E  E     E  E  E  E  E  E  E  E
--------------------------|--------------------------|
--------------------------|--------------------------|
--------------------------|--------------------------|
--2--L-----------------5--|-----3-----2-----3--2--0--|
--2--L--2--2--2--2--2--5--|-----3-----2-----3--2--0--|
--2--L--2--2--2--2--2--5--|-----3-----2-----3--2--0--|


       PM PM PM PM PM PM
  Q    E  E  E  E  E  E     E  E  E  E  E  E  E  E
-------------------------|--------------------------|
-------------------------|--------------------------|
-------------------------|--------------------------|
--3----------------------|-----3-----3-----3-----3--|
--3----3--3--3--3--3--3--|-----3-----3-----3-----3--|
--3----3--3--3--3--3--3--|-----3-----3-----3-----3--|


  W                   W
-------------------|-------------------|
-------------------|-------------------|
-------------------|-------------------|
--2----------------|--L----------------|
--2----------------|--L----------------|
--2----------------|--L----------------|


  W                   W
-------------------|-------------------|
-------------------|-------------------|
-------------------|-------------------|
--2----------------|--L----------------|
--2----------------|--L----------------|
--2----------------|--L----------------|


  W                   W
-------------------|-------------------|
-------------------|-------------------|
-------------------|-------------------|
--2----------------|--L----------------|
--2----------------|--L----------------|
--2----------------|--L----------------|


  W                   W
-------------------|-------------------|
-------------------|-------------------|
-------------------|-------------------|
--2----------------|--L----------------|
--2----------------|--L----------------|
--2----------------|--L----------------|


  W                   H        E   E  E  E
-------------------|------------------------|
-------------------|------------------------|
-------------------|------------------------|
--5----------------|--L--------5s--7--L--7--|
--5----------------|--L--------5s--7--L--7--|
--5----------------|--L--------5s--7--L--7--|


  W                   W
-------------------|-------------------|
-------------------|-------------------|
-------------------|-------------------|
--2----------------|--L----------------|
--2----------------|--L----------------|
--2----------------|--L----------------|


  W                   H        E   E  E  E
-------------------|------------------------|
-------------------|------------------------|
-------------------|------------------------|
--5----------------|--L--------5s--7--L--7--|
--5----------------|--L--------5s--7--L--7--|
--5----------------|--L--------5s--7--L--7--|


  W                   W
-------------------|-------------------|
-------------------|-------------------|
-------------------|-------------------|
--2----------------|--L----------------|
--2----------------|--L----------------|
--2----------------|--L----------------|


  W                   H        E   E  E  E
-------------------|------------------------|
-------------------|------------------------|
-------------------|------------------------|
--5----------------|--L--------5s--7--L--7--|
--5----------------|--L--------5s--7--L--7--|
--5----------------|--L--------5s--7--L--7--|


  W                   W
-------------------|-------------------|
-------------------|-------------------|
-------------------|-------------------|
--2----------------|--L----------------|
--2----------------|--L----------------|
--2----------------|--L----------------|


  W                   H        E   E  E  E
-------------------|------------------------|
-------------------|------------------------|
-------------------|------------------------|
--5----------------|--L--------5s--7--L--7--|
--5----------------|--L--------5s--7--L--7--|
--5----------------|--L--------5s--7--L--7--|


  W                   W
-------------------|-------------------|
-------------------|-------------------|
-------------------|-------------------|
--2----------------|--L----------------|
--2----------------|--L----------------|
--2----------------|--L----------------|


  W                   H        E   E  E  E
-------------------|------------------------|
-------------------|------------------------|
-------------------|------------------------|
--5----------------|--L--------5s--7--L--7--|
--5----------------|--L--------5s--7--L--7--|
--5----------------|--L--------5s--7--L--7--|


  W                   W
-------------------|-------------------|
-------------------|-------------------|
-------------------|-------------------|
--2----------------|--L----------------|
--2----------------|--L----------------|
--2----------------|--L----------------|


  W                   H        E   E  E  E
-------------------|------------------------|
-------------------|------------------------|
-------------------|------------------------|
--5----------------|--L--------5s--7--L--7--|
--5----------------|--L--------5s--7--L--7--|
--5----------------|--L--------5s--7--L--7--|


  W                   W
-------------------|-------------------|
-------------------|-------------------|
-------------------|-------------------|
--2----------------|--L----------------|
--2----------------|--L----------------|
--2----------------|--L----------------|


  W                   H        E   E  E  E
-------------------|------------------------|
-------------------|------------------------|
-------------------|------------------------|
--5----------------|--L--------5s--7--L--7--|
--5----------------|--L--------5s--7--L--7--|
--5----------------|--L--------5s--7--L--7--|


  W                   W
-------------------|-------------------|
-------------------|-------------------|
-------------------|-------------------|
--2----------------|--L----------------|
--2----------------|--L----------------|
--2----------------|--L----------------|


  W                   H        E   E  E  E
-------------------|------------------------|
-------------------|------------------------|
-------------------|------------------------|
--5----------------|--L--------5s--7--L--7--|
--5----------------|--L--------5s--7--L--7--|
--5----------------|--L--------5s--7--L--7--|


  W                   W
-------------------|-------------------|
-------------------|-------------------|
-------------------|-------------------|
--2----------------|--L----------------|
--2----------------|--L----------------|
--2----------------|--L----------------|


        PM PM PM PM PM
  E  E  E  E  E  E  E  E     E  E  E  E  E  E  E  E
--------------------------|--------------------------|
--------------------------|--------------------------|
--------------------------|--------------------------|
--2--L-----------------5--|-----3-----2-----3--2--0--|
--2--L--2--2--2--2--2--5--|-----3-----2-----3--2--0--|
--2--L--2--2--2--2--2--5--|-----3-----2-----3--2--0--|


       PM PM PM PM PM PM
  Q    E  E  E  E  E  E     E  E  E  E  E  E  E  E
-------------------------|--------------------------|
-------------------------|--------------------------|
-------------------------|--------------------------|
--3----------------------|-----3-----3-----3-----3--|
--3----3--3--3--3--3--3--|-----3-----3-----3-----3--|
--3----3--3--3--3--3--3--|-----3-----3-----3-----3--|


        PM PM PM PM PM
  E  E  E  E  E  E  E  E     E  E  E  E  E  E  E  E
--------------------------|--------------------------|
--------------------------|--------------------------|
--------------------------|--------------------------|
--2--L-----------------5--|-----3-----2-----3--2--0--|
--2--L--2--2--2--2--2--5--|-----3-----2-----3--2--0--|
--2--L--2--2--2--2--2--5--|-----3-----2-----3--2--0--|


       PM PM PM PM PM PM
  Q    E  E  E  E  E  E     E  E  E  E  E  E  E  E
-------------------------|--------------------------|
-------------------------|--------------------------|
-------------------------|--------------------------|
--3----------------------|-----3-----3-----3-----3--|
--3----3--3--3--3--3--3--|-----3-----3-----3-----3--|
--3----3--3--3--3--3--3--|-----3-----3-----3-----3--|


        PM PM PM PM PM
  E  E  E  E  E  E  E  E     E  E  E  E  E  E  E  E
--------------------------|--------------------------|
--------------------------|--------------------------|
--------------------------|--------------------------|
--2--L-----------------5--|-----3-----2-----3--2--0--|
--2--L--2--2--2--2--2--5--|-----3-----2-----3--2--0--|
--2--L--2--2--2--2--2--5--|-----3-----2-----3--2--0--|


       PM PM PM PM PM PM    PM PM PM PM PM PM PM PM
  Q    E  E  E  E  E  E     E  E  E  E  E  E  E  E
-------------------------|--------------------------|
-------------------------|--------------------------|
-------------------------|--------------------------|
--3----------------------|--------------------------|
--3----3--3--3--3--3--3--|--3--3--3--3--3--3--3--3--|
--3----3--3--3--3--3--3--|--3--3--3--3--3--3--3--3--|


        PM PM PM PM PM
  E  E  E  E  E  E  E  E     E  E  E  E  E  E  E  E
--------------------------|--------------------------|
--------------------------|--------------------------|
--------------------------|--------------------------|
--2--L-----------------5--|-----3-----2-----3--2--0--|
--2--L--2--2--2--2--2--5--|-----3-----2-----3--2--0--|
--2--L--2--2--2--2--2--5--|-----3-----2-----3--2--0--|


       PM PM PM PM PM PM    PM PM PM PM PM PM PM PM
  Q    E  E  E  E  E  E     E  E  E  E  E  E  E  E
-------------------------|--------------------------|
-------------------------|--------------------------|
-------------------------|--------------------------|
--3----------------------|--------------------------|
--3----3--3--3--3--3--3--|--3--3--3--3--3--3--3--3--|
--3----3--3--3--3--3--3--|--3--3--3--3--3--3--3--3--|


        PM PM PM PM PM
  E  E  E  E  E  E  E  E     E  E  E  E  E  E  E  E
--------------------------|--------------------------|
--------------------------|--------------------------|
--------------------------|--------------------------|
--2--L-----------------5--|-----3-----2-----3--2--0--|
--2--L--2--2--2--2--2--5--|-----3-----2-----3--2--0--|
--2--L--2--2--2--2--2--5--|-----3-----2-----3--2--0--|


       PM PM PM PM PM PM    PM PM PM PM PM PM PM PM
  Q    E  E  E  E  E  E     E  E  E  E  E  E  E  E
-------------------------|--------------------------|
-------------------------|--------------------------|
-------------------------|--------------------------|
--3----------------------|--------------------------|
--3----3--3--3--3--3--3--|--3--3--3--3--3--3--3--3--|
--3----3--3--3--3--3--3--|--3--3--3--3--3--3--3--3--|


        PM PM PM PM PM
  E  E  E  E  E  E  E  E     E  E  E  E  E  E  E  E
--------------------------|--------------------------|
--------------------------|--------------------------|
--------------------------|--------------------------|
--2--L-----------------5--|-----3-----2-----3--2--0--|
--2--L--2--2--2--2--2--5--|-----3-----2-----3--2--0--|
--2--L--2--2--2--2--2--5--|-----3-----2-----3--2--0--|


       PM PM PM PM PM PM    PM PM PM PM PM PM PM PM
  Q    E  E  E  E  E  E     E  E  E  E  E  E  E  E
-------------------------|--------------------------|
-------------------------|--------------------------|
-------------------------|--------------------------|
--3----------------------|--------------------------|
--3----3--3--3--3--3--3--|--3--3--3--3--3--3--3--3--|
--3----3--3--3--3--3--3--|--3--3--3--3--3--3--3--3--|


  E  E  E  E  E  E  E  E
--------------------------||
--------------------------||
--------------------------||
--2-----------------------||
--2-----------------------||
--2-----------------------||


Duration Legend
---------------
W - whole
H - half
Q - quarter
E - 8th
S - 16th
T - 32nd
X - 64th
. - note dotted
|-n-|  - n-tuplets


Tablature Legend
----------------
L - tied note
x - dead note
g - grace note
(n) - ghost note
> - accentuded note
NH - natural harmonic
AH - artificial harmonic
TH - tapped harmonic
SH - semi harmonic
PH - pitch harmonic
h - hammer on
p - pull off
b - bend
br - bendRelease
pb - preBend
pbr - preBendRelease
brb - bendReleaseBend
\n/ - tremolo bar dip
\n - tremolo bar dive
-/n - tremolo bar Release up
/n\ - tremolo bar inverted dip
/n - tremolo bar return
-\n - tremolo bar Release down
S - shift slide
s - legato slide
/ -  slide into from below or out of upwards
\ -  slide into from above or out of downwards
~ - vibrato
W - wide vibrato
tr - trill
TP - tremolo picking
T - tapping
S - slap
P - pop
< - fade in
^ - brush up
v - brush down
comments
We did not receive enough feedback on this tab! Please rate:
print report bad tab
1 2 3 4 5
I want to post or [tab]
guest
You may want to rate the tab now too:
select rating
Please do not post tabs as comments. Select "correction" instead!