Oops, an error
Loading. Please wait.

Dead Memories Bass Tab

ver4
ver4

Whole song

More versions @911Tabs.com
1,095 views 21 this week
no commentswrite comment
1 2 3 4 5
excellent!
x 1
Autoscroll
+/-
esc
set tempo
stop
Contributor
Tuning
B F# B E G# C#
WARNING: You are trying to view
                                    content from Ultimate-Guitar.com
                                    in an unauthorized application,
                                    which is prohibited.

                                    Please use an official Ultimate
                                    Guitar Tabs application for iPhone,
                                    iPad or Android to access legitimate
                                    chords, guitar, bass, and drum tabs
                                    from Ultimate-Guitar.com database.

                                    Type "ultimate guitar tabs" in Apple
                                    App Store's or Android Market's
                                    search to find the application.
0:11
E |----------------------------------|
B |----------------------------------|
F#|----------------------------------|
B |-/12\-5---8---6---5-5-5-5-5-5-5-5-|

0:14
E |-----------------------------------|---------------------------------|
B |o---------------------------------o|---------------------------------|
F#|o---------------------------------o|---------------------------------|
B |--5-5-5-8-8-8-6-6-5-5-8-5-5-8-5-8--|-5-5-5-6-6-6-8-8-5-5-8-5-5-8-5-8-|

E |-------------------------------------------------|
B |-------------------------------------------------|
F#|-------------------------------------------------|
B |-5-5-5-8-8-8-6-6-5-5-5-5-5-5-5-5-5-5-5-5-5-5-8-6-|

Verse 0:31
E |-----------------------------------|---------------------------------|
B |o---------------------------------o|---------------------------------|
F#|o---------------------------------o|---------------------------------|
B |--5-5-5-8-8-8-6-6-5-5-8-5-5-8-5-8--|-5-5-5-6-6-6-8-8-5-5-8-5-5-8-5-8-| 

E |---------------------------------|---------------------------------|
B |---------------------------------|---------------------------------|
F#|---------------------------------|---------------------------------|
B |-5-5-5-8-8-8-6-6-5-5-8-5-5-8-5-3-|-5-5-5-8-8-8-6-6-5-5-5-5-5-5-8-3-|

E |---------------------------------|---------------------------------|
B |---------------------------------|---------------------------------|
F#|---------------------------------|---------------------------------|
B |-5-5-5-8-8-8-6-6-5-5-5-5-5-5-6-8-|-5-5-5-6-6-6-8-8-5-5-5-5-5-5-6-8-|

E |---------------------------------|
B |---------------------------------|
F#|---------------------------------|
B |-5-5-5-8-8-8-6-6-5-5-5-5-5-5-5-3-|

Pre-chorus 1:01
E |-----------------------------------------------------------------|
B |-----------------------------------------------------------------|
F#|---------------------------------------------------------5-3-----|
B |-5-8-7-3---0-0-0-0-6-6-6-6-6-6-6-5-8-7-3---0-0-0-0-6-6-6-----5-3-|

1:08
E |-----------------------------------------------------------------|
B |-----------------------------------------------------------------|
F#|---------------------------------------------------------5-3-----|
B |-5-8-7-3---0-0-0-0-6-6-6-6-6-6-6-5-8-7-3---0-0-0-0-6-6-6-----8-6-|

Chorus 1:16
E |-----------------------------------------------------------------|
B |-------------------------------------------------------------3-4-|
F#|-----------------1-1-1-------1-1-----------------3-3-3-5-5-5-----|
B |-5-5-5-8-8-8-3-3-------3-3-3-----0-0-0-0-0-0-0-0-----------------|

E |----------------------------------------------------------|
B |---------5------------------------------------------------|
F#|-----------5----------------------------------------------|
B |-5-5-5-8-----5---8-8-8-8-8-8-8-8-3-3-3-2--2-2---1-1-1-0---|

Pre-Verse 1:31
E |---------------------------------|
B |---------------------------------|
F#|---------------------------------|
B |-5-5-5-8-8-8-6-6-5-5-5-5-5-5-5-5-|

E |-------------------------------------------------|
B |-------------------------------------------------|
F#|-------------------------------------------------|
B |-5-5-5-8-8-8-6-6-5-5-5-5-5-5-5-5-5-5-5-5-5-5-8p6-|

Verse 1:39
E |------------------------------------|----------------------------------|
B |o----------------------------------o|----------------------------------|
F#|o----------------------------------o|----------------------------------|
B |--55555588888866665555885555885588--|-55555566666688885555885555885588-|

E |----------------------------------|
B |----------------------------------|
F#|----------------------------------|
B |-55555588888866665555885555885588-|

Pre-chorus 1:54
E |-----------------------------------------------------------------|
B |-----------------------------------------------------------------|
F#|---------------------------------------------------------5-3-----|
B |-5-8-7-3---0-0-0-0-6-6-6-6-6-6-6-5-8-7-3---0-0-0-0-6-6-6-----5-3-|

E |-----------------------------------------------------------------|
B |-----------------------------------------------------------------|
F#|---------------------------------------------------------5-3-----|
B |-5-8-7-3---0-0-0-0-6-6-6-6-6-6-6-5-8-7-3---0-0-0-0-6-6-6-----8-6-|

Chorus 2:09
E |-------------------------3---------------------------------------|
B |-----4-5-5-5---------3-------3-----------------------------------|
F#|-----------------1-1-----------------------------3-3-3-5-5-5-----|
B |-5-5---------5-5-----------------0-0-0-0-0-0-0-0-------------8-7-|

E |-------------7------------------------------------------------|
B |-----------0---0----------------------------------------------|
F#|--------------------------------------------------------------|
B |-5-5-5-5-5-------8-8-8-8-8-8-8-8-3-3-3-2--2-2---1-1-1-0---0---|

2:24
E |-----------------------------------------------------------------|
B |-----------------------------------------------------------------|
F#|-------------------------------------------------6-6-6-5-5-5-5---|
B |-5-5-5-7-7-7-8-8-8-8-8-3-3-3-5-5-0-0-8-7-7-7-0-0---------------8-|

E |-------------------------------------------------------------|
B |-------------------------------------------------------------|
F#|-------------------------------------------------------------|
B |-5-5-5-7-7-7-8-8-8-8-8-3-3-3-5-5-3-3-3-2--2-2---1-1-1-0--0-0-|

Bridge 2:38
E |-------------------------------------------------|
B |-------------------------------------------------|
F#|-------------------------------------------------|
B |-5-5-5-8-8-8-6-6-5-5-8-5-5-8-5-8-5-5-5-8-8-8-6-6-|

2:44
E |----------------------------------|
B |----------------------------------|
F#|--55-55-5-55-55-5-55-55-5-55-55-5-|
B |-5--5--5-5--5--5-5--5--5-5--5--5--|

Solo 2:52
E |-------------------------------------------------------------------|
B |o-----------------------------------------------------------------o|
F#|o---------------------------------------------------------5-3-----o|
B |--5-8-7-3---0-0-0-0-6-6-6-6-6-6-6-5-8-7-3---0-0-0-0-6-6-6-----8-7--|

3:06
E |---------------------------------------------------|
B |---------------------------------------------------|
F#|------1----5----3---------1----5----3---------1----|
B |-5-------------------5-------------------5---------|

E |-----------------------------|
B |-----------------------------|
F#|-----------------------------|
B |-3-3-3-2--2-2---1-1-1-0--0-0-|

Chorus 3:28
E |-----------------------------------------------------------------|
B |---------------------------------------------------------------3-|
F#|-------------------------------------------------3-3-3---3---5---|
B |-5-5-5-8-8-8-3-3-8-8-8-3-3-3-5-5-0-0-8-7-7-7-0-0-------5---5-----|

E |-----------------------------------------------------------7---|
B |---------------------------------------------------------0---0-|
F#|---------------------------------------------------------------|
B |-5-5-5-8-8-8-3-3-8-8-8-3-3-3-5-5-3-3-3-2--2-2---1-1-1-0--------|

3:43
E |------------------------------------------------------------------|
B |----------------------------------------------------------------3-|
F#|--------------------------------------------------3-3-r-3-r-3-5---|
B |--5-5-5-8-8-r-3-r-8-8-8-3-3--/5---0-0-8-7-7-7-0-0-----------------|

3:51
E |-------3-3-3--------------------------------------------------|
B |-------------3---------3-3-3-5--------------------------------|
F#|-----------------1-1-1----------------------------------------|
B |-5-5-5---------------------------3-3-3-2--2-2---1-1-1-0--0-0--|

3:58
E |-----------------------------------------------------------------|
B |-----------------------------------------------------------------|
F#|-------------------------------------------------3-3-3-3-3-3-3-3-|
B |-5-5-5-5-5-5-5-5-8-8-8-8-8-8-8-8-0-0-0-0-0-0-0-0-----------------|

E |-7-7-7-7-7-7-7-7-12-12-12-10-10-10-12-12----------------------------|
B |--------------------------------------------------------------------|
F#|--------------------------------------------------------------------|
B |-----------------------------------------3-3-3-2--2-2---1-1-1-0-----|
Tabbed by Dave Vucko 
comments
We did not receive enough feedback on this tab! Please rate:
print report bad tab
1 2 3 4 5
I want to post or [tab]
guest
You may want to rate the tab now too:
select rating
Please do not post tabs as comments. Select "correction" instead!