Oops, an error
Loading. Please wait.

Despise Tab

ver2
ver2

Whole song

More versions @911Tabs.com
569 views 1 this week
no commentswrite comment
1 2 3 4 5
excellent!
x 2
Autoscroll
+/-
esc
set tempo
stop
Contributor
Difficulty
Tuning
intermediate
B F# B E G# C#
WARNING: You are trying to view
                                    content from Ultimate-Guitar.com
                                    in an unauthorized application,
                                    which is prohibited.

                                    Please use an official Ultimate
                                    Guitar Tabs application for iPhone,
                                    iPad or Android to access legitimate
                                    chords, guitar, bass, and drum tabs
                                    from Ultimate-Guitar.com database.

                                    Type "ultimate guitar tabs" in Apple
                                    App Store's or Android Market's
                                    search to find the application.
SONG: Despise
ARTIST:SlipKnoT

I included lyrics to this tab for your convenience and easy following
2 guitars both tuned in Dropped-B (B,F#,B,E,G#,C#) and very highly 
distorted.


Guitars 1+2
   E E E E E E E E E E E E E E E E E E E E E E E E E E E E E E E E
C#-----------------------------------------------------------------|
G#-----------------------------------------------------------------|
E--9\8-8-9\8-8-9\8-9\8-8-9\8-8-9\8-9\8-8-9\8-8-9\8-9\8-8-9\8-8-9\8-|
B--x---x-x---x-x---x---x-x---x-x---x---x-x---x-x---x---x-x---x-x---|
F#-7\6-6-7\6-6-7\6-7\6-6-7\6-6-7\6-7\6-6-7\6-6-7\6-7\6-6-7\6-6-7\6-|
B------------------------------------------------------------------|

Guitar 1
    E E E E E E E E E E E E E E E E E E E E E E E E E E E E E E E E
|C#-----------------------------------------------------------------|
|G#-----------------------------------------------------------------|
|E--9\8-8-9\8-8-9\8-9\8-8-9\8-8-9\8-9\8-8-9\8-8-9\8-9\8-8-9\8-8-9\8-|
|B--x---x-x---x-x---x---x-x---x-x---x---x-x---x-x---x---x-x---x-x---|
|F#-7\6-6-7\6-6-7\6-7\6-6-7\6-6-7\6-7\6-6-7\6-6-7\6-7\6-6-7\6-6-7\6-|
|B------------------------------------------------------------------|
|                                                                   |
|Guitar 2                                                           |
|   SSE E E E SSE E SSE E E E SSE E SSE E E E SSE E SSE E E E SSE E |
|C#-----------------------------------------------------------------|
|G#-----------------------------------------------------------------|
|E------------------------------------------------------------------|
|B--xx3-x-1-0-xx3-1-xx3-x-1-0-xx3-1-xx3-x-1-0-xx3-1-xx3-x-1-0-xx3-1-|
|F#-xx3-x-1-0-xx3-1-xx3-x-1-0-xx3-1-xx3-x-1-0-xx3-1-xx3-x-1-0-xx3-1-|
|B--xx3-x-1-0-xx3-1-xx3-x-1-0-xx3-1-xx3-x-1-0-xx3-1-xx3-x-1-0-xx3-1-|


"DESPISE!!!!"

Guitars 1+2
   SSE E E E SSE E SSE E E E SSE E SSE E E E SSE E SSE E E E SSE E
C#-----------------------------------------------------------------|
G#-----------------------------------------------------------------|
E------------------------------------------------------------------|
B--xx3-x-1-0-xx3-1-xx3-x-1-0-xx3-1-xx3-x-1-0-xx3-1-xx3-x-1-0-xx3-1-|
F#-xx3-x-1-0-xx3-1-xx3-x-1-0-xx3-1-xx3-x-1-0-xx3-1-xx3-x-1-0-xx3-1-|
B--xx3-x-1-0-xx3-1-xx3-x-1-0-xx3-1-xx3-x-1-0-xx3-1-xx3-x-1-0-xx3-1-|

   SSE E E E SSE E SSE E E E SSE E SSE E E E SSE E SSE E E E SSE E
C#-----------------------------------------------------------------|
G#-----------------------------------------------------------------|
E------------------------------------------------------------------|
B--xx3-x-1-0-xx3-1-xx3-x-1-0-xx3-1-xx3-x-1-0-xx3-1-xx3-x-1-0-xx3-1-|
F#-xx3-x-1-0-xx3-1-xx3-x-1-0-xx3-1-xx3-x-1-0-xx3-1-xx3-x-1-0-xx3-1-|
B--xx3-x-1-0-xx3-1-xx3-x-1-0-xx3-1-xx3-x-1-0-xx3-1-xx3-x-1-0-xx3-1-|

Guitar 1 (They're all Tens, no ones or zeros)
   S S S S S S S S S S S S S S S S S S S S S S S S S S S S S S S S
|C#-1010101010101010101010101010101010101010101010101010101010101010-|
|G#------------------------------------------------------------------|
|E-------------------------------------------------------------------|
|B-------------------------------------------------------------------|
|F#------------------------------------------------------------------|
|B-------------------------------------------------------------------|
|                              |
|Guitar 2                      |
|   |-3-| |-3-| |-3-| |-3-|    |
|   E E E E E E   E E E E E    |
|C#----------------------------|
|G#----------------------------|
|E-----------------------------|
|B--0-3-1-0-3-1---3-1-0-3-1----|
|F#-0-3-1-0-3-1---3-1-0-3-1----|
|B--0-3-1-0-3-1---3-1-0-3-1----|
    * * * * * *   * * * * *

"Maze. Psychopathic daze. I create this waste"

    S S S S S S S S S S S S S S S S S S S S S S S S S S S S S
|C#-1010101010101010101010101010101010101010101010101010101010-|
|G#------------------------------------------------------------|
|E-------------------------------------------------------------|
|B-------------------------------------------------------------|
|F#------------------------------------------------------------|
|B-------------------------------------------------------------|
|                              |
|Guitar 2                      |
|   |-3-| |-3-| |-3-| |-3-|    |
|   E E E E E E   E E E E E    |
|C#----------------------------|
|G#----------------------------|
|E-----------------------------|
|B--0-3-1-0-3-1---3-1-0-3-1----|
|F#-0-3-1-0-3-1---3-1-0-3-1----|
|B--0-3-1-0-3-1---3-1-0-3-1----|
    * * * * * *   * * * * *
"Back away from tangents, on the verge of drastic ways"

   S S S S S S S S S S S S S S S S S S S S S S S S S S S S S S S S
|C#-1010101010101010101010101010101010101010101010101010101010101010-|
|G#------------------------------------------------------------------|
|E-------------------------------------------------------------------|
|B-------------------------------------------------------------------|
|F#------------------------------------------------------------------|
|B-------------------------------------------------------------------|
|                              |
|Guitar 2                      |
|   |-3-| |-3-| |-3-| |-3-|    |
|   E E E E E E   E E E E E    |
|C#----------------------------|
|G#----------------------------|
|E-----------------------------|
|B--0-3-1-0-3-1---3-1-0-3-1----|
|F#-0-3-1-0-3-1---3-1-0-3-1----|
|B--0-3-1-0-3-1---3-1-0-3-1----|
    * * * * * *   * * * * *
"can't escape this place...I deny my face"

   S S S S S S S S S S S S S S S S S S S S S S S S S S S S S S S S
|C#-1010101010101010101010101010101010101010101010101010101010101010-|
|G#------------------------------------------------------------------|
|E-------------------------------------------------------------------|
|B-------------------------------------------------------------------|
|F#------------------------------------------------------------------|
|B-------------------------------------------------------------------|
|                              |
|Guitar 2                      |
|   |-3-| |-3-| |-3-| |-3-|    |
|   E E E E E E   E E E E E    |
|C#----------------------------|
|G#----------------------------|
|E-----------------------------|
|B--0-3-1-0-3-1---3-1-0-3-1----|
|F#-0-3-1-0-3-1---3-1-0-3-1----|
|B--0-3-1-0-3-1---3-1-0-3-1----|
    * * * * * *   * * * * *

"Sweat gets in my EYES, LASH OUT AT ALL, I DESPISE"

 Guitars 1+2
   SSE E E E SSE E SSE E E E SSE E SSE E E E SSE E SSE E E E SSE E
C#-----------------------------------------------------------------|
G#-----------------------------------------------------------------|
E------------------------------------------------------------------|
B--xx3-x-1-0-xx3-1-xx3-x-1-0-xx3-1-xx3-x-1-0-xx3-1-xx3-x-1-0-xx3-1-|
F#-xx3-x-1-0-xx3-1-xx3-x-1-0-xx3-1-xx3-x-1-0-xx3-1-xx3-x-1-0-xx3-1-|
B--xx3-x-1-0-xx3-1-xx3-x-1-0-xx3-1-xx3-x-1-0-xx3-1-xx3-x-1-0-xx3-1-|

"OH!"

   SSE E E E SSE E SSE E E E SSE E SSE E E E SSE E SSE E E E SSE E
C#-----------------------------------------------------------------|
G#-----------------------------------------------------------------|
E------------------------------------------------------------------|
B--xx3-x-1-0-xx3-1-xx3-x-1-0-xx3-1-xx3-x-1-0-xx3-1-xx3-x-1-0-xx3-1-|
F#-xx3-x-1-0-xx3-1-xx3-x-1-0-xx3-1-xx3-x-1-0-xx3-1-xx3-x-1-0-xx3-1-|
B--xx3-x-1-0-xx3-1-xx3-x-1-0-xx3-1-xx3-x-1-0-xx3-1-xx3-x-1-0-xx3-1-|

"HANDS ON MY FACE! OVERBEARING! I CAN'T GET OUT!!!!!!"

   SSE E E E SSE E SSE E E E SSE E SSE E E E SSE E SSE E E E SSE E
C#-----------------------------------------------------------------|
G#-----------------------------------------------------------------|
E------------------------------------------------------------------|
B--xx3-x-1-0-xx3-1-xx3-x-1-0-xx3-1-xx3-x-1-0-xx3-1-xx3-x-1-0-xx3-1-|
F#-xx3-x-1-0-xx3-1-xx3-x-1-0-xx3-1-xx3-x-1-0-xx3-1-xx3-x-1-0-xx3-1-|
B--xx3-x-1-0-xx3-1-xx3-x-1-0-xx3-1-xx3-x-1-0-xx3-1-xx3-x-1-0-xx3-1-|

"OH!"

   SSE E E E SSE E SSE E E E SSE E SSE E E E SSE E SSE E E E SSE E
C#-----------------------------------------------------------------|
G#-----------------------------------------------------------------|
E------------------------------------------------------------------|
B--xx3-x-1-0-xx3-1-xx3-x-1-0-xx3-1-xx3-x-1-0-xx3-1-xx3-x-1-0-xx3-1-|
F#-xx3-x-1-0-xx3-1-xx3-x-1-0-xx3-1-xx3-x-1-0-xx3-1-xx3-x-1-0-xx3-1-|
B--xx3-x-1-0-xx3-1-xx3-x-1-0-xx3-1-xx3-x-1-0-xx3-1-xx3-x-1-0-xx3-1-|

"HANDS ON MY FACE! OVERBEARING! I CAN'T GET OUT!!!!!!"


Guitar 1 (They're all Tens, no ones or zeros...again)
   S S S S S S S S S S S S S S S S S S S S S S S S S S S S S S S S
|C#-1010101010101010101010101010101010101010101010101010101010101010-|
|G#------------------------------------------------------------------|
|E-------------------------------------------------------------------|
|B-------------------------------------------------------------------|
|F#------------------------------------------------------------------|
|B-------------------------------------------------------------------|
|                              |
|Guitar 2                      |
|   |-3-| |-3-| |-3-| |-3-|    |
|   E E E E E E   E E E E E    |
|C#----------------------------|
|G#----------------------------|
|E-----------------------------|
|B--0-3-1-0-3-1---3-1-0-3-1----|
|F#-0-3-1-0-3-1---3-1-0-3-1----|
|B--0-3-1-0-3-1---3-1-0-3-1----|
    * * * * * *   * * * * *


"Lost. Ran at my own cost. Hearing laughter, scoffed"

    S S S S S S S S S S S S S S S S S S S S S S S S S S S S S
|C#-1010101010101010101010101010101010101010101010101010101010-|
|G#------------------------------------------------------------|
|E-------------------------------------------------------------|
|B-------------------------------------------------------------|
|F#------------------------------------------------------------|
|B-------------------------------------------------------------|
|                              |
|Guitar 2                      |
|   |-3-| |-3-| |-3-| |-3-|    |
|   E E E E E E   E E E E E    |
|C#----------------------------|
|G#----------------------------|
|E-----------------------------|
|B--0-3-1-0-3-1---3-1-0-3-1----|
|F#-0-3-1-0-3-1---3-1-0-3-1----|
|B--0-3-1-0-3-1---3-1-0-3-1----|
    * * * * * *   * * * * *
"Searching from the rush, detached from such and such"

   S S S S S S S S S S S S S S S S S S S S S S S S S S S S S S S S
|C#-1010101010101010101010101010101010101010101010101010101010101010-|
|G#------------------------------------------------------------------|
|E-------------------------------------------------------------------|
|B-------------------------------------------------------------------|
|F#------------------------------------------------------------------|
|B-------------------------------------------------------------------|
|                              |
|Guitar 2                      |
|   |-3-| |-3-| |-3-| |-3-|    |
|   E E E E E E   E E E E E    |
|C#----------------------------|
|G#----------------------------|
|E-----------------------------|
|B--0-3-1-0-3-1---3-1-0-3-1----|
|F#-0-3-1-0-3-1---3-1-0-3-1----|
|B--0-3-1-0-3-1---3-1-0-3-1----|
    * * * * * *   * * * * *
"Bleak...standing on my feet...listening incomplete"

   S S S S S S S S S S S S S S S S S S S S S S S S S S S S S S S S
|C#-1010101010101010101010101010101010101010101010101010101010101010-|
|G#------------------------------------------------------------------|
|E-------------------------------------------------------------------|
|B-------------------------------------------------------------------|
|F#------------------------------------------------------------------|
|B-------------------------------------------------------------------|
|                              |
|Guitar 2                      |
|   |-3-| |-3-| |-3-| |-3-|    |
|   E E E E E E   E E E E E    |
|C#----------------------------|
|G#----------------------------|
|E-----------------------------|
|B--0-3-1-0-3-1---3-1-0-3-1----|
|F#-0-3-1-0-3-1---3-1-0-3-1----|
|B--0-3-1-0-3-1---3-1-0-3-1----|
    * * * * * *   * * * * *
"I am not a dog, but I'M THE ONE YOU DOG!"

 Guitars 1+2
   SSE E E E SSE E SSE E E E SSE E SSE E E E SSE E SSE E E E SSE E
C#-----------------------------------------------------------------|
G#-----------------------------------------------------------------|
E------------------------------------------------------------------|
B--xx3-x-1-0-xx3-1-xx3-x-1-0-xx3-1-xx3-x-1-0-xx3-1-xx3-x-1-0-xx3-1-|
F#-xx3-x-1-0-xx3-1-xx3-x-1-0-xx3-1-xx3-x-1-0-xx3-1-xx3-x-1-0-xx3-1-|
B--xx3-x-1-0-xx3-1-xx3-x-1-0-xx3-1-xx3-x-1-0-xx3-1-xx3-x-1-0-xx3-1-|

"OH!"

   SSE E E E SSE E SSE E E E SSE E SSE E E E SSE E SSE E E E SSE E
C#-----------------------------------------------------------------|
G#-----------------------------------------------------------------|
E------------------------------------------------------------------|
B--xx3-x-1-0-xx3-1-xx3-x-1-0-xx3-1-xx3-x-1-0-xx3-1-xx3-x-1-0-xx3-1-|
F#-xx3-x-1-0-xx3-1-xx3-x-1-0-xx3-1-xx3-x-1-0-xx3-1-xx3-x-1-0-xx3-1-|
B--xx3-x-1-0-xx3-1-xx3-x-1-0-xx3-1-xx3-x-1-0-xx3-1-xx3-x-1-0-xx3-1-|

"HANDS ON MY FACE! OVERBEARING! I CAN'T GET OUT!!!!!!"

   SSE E E E SSE E SSE E E E SSE E SSE E E E SSE E SSE E E E SSE E
C#-----------------------------------------------------------------|
G#-----------------------------------------------------------------|
E------------------------------------------------------------------|
B--xx3-x-1-0-xx3-1-xx3-x-1-0-xx3-1-xx3-x-1-0-xx3-1-xx3-x-1-0-xx3-1-|
F#-xx3-x-1-0-xx3-1-xx3-x-1-0-xx3-1-xx3-x-1-0-xx3-1-xx3-x-1-0-xx3-1-|
B--xx3-x-1-0-xx3-1-xx3-x-1-0-xx3-1-xx3-x-1-0-xx3-1-xx3-x-1-0-xx3-1-|

"OH!"

   SSE E E E SSE E SSE E E E SSE E SSE E E E SSE E SSE E E E SSE E
C#-----------------------------------------------------------------|
G#-----------------------------------------------------------------|
E------------------------------------------------------------------|
B--xx3-x-1-0-xx3-1-xx3-x-1-0-xx3-1-xx3-x-1-0-xx3-1-xx3-x-1-0-xx3-1-|
F#-xx3-x-1-0-xx3-1-xx3-x-1-0-xx3-1-xx3-x-1-0-xx3-1-xx3-x-1-0-xx3-1-|
B--xx3-x-1-0-xx3-1-xx3-x-1-0-xx3-1-xx3-x-1-0-xx3-1-xx3-x-1-0-xx3-1-|

"HANDS ON MY FACE! OVERBEARING! I CAN'T GET OUT!!!!!!"

Guitars 1+2
   E E E E E E E E Q   E E Q   Q   E E E E E E E E Q   E E Q   Q
C#-----------------------------------------------------------------|
G#---7-7---7-7-----------------------7-7---7-7---------------------|
E----5-5---5-5-----------------------5-5---5-5---------------------|
B--3-4-4-3-4-4-0-0-8---8-x-4---4---3-4-4-3-4-4-0-0-8---8-x-4---4---|
F#-------------0-0-8---8-x-4---4---------------0-0-8---8-x-4---4---|
B--------------0-0-8---8-x-4---4---------------0-0-8---8-x-4---4---|
               * *                             * *
"NEVER EVER SURRENDER! I WON'T ALLOW IT!"
"NEVER EVER SURRENDER! I WON'T ALLOW IT!"

   E E E E E E E E Q   E E Q   Q   E E E E E E E E Q   E E Q   Q
C#-----------------------------------------------------------------|
G#---7-7---7-7-----------------------7-7---7-7---------------------|
E----5-5---5-5-----------------------5-5---5-5---------------------|
B--3-4-4-3-4-4-0-0-8---8-x-4---4---3-4-4-3-4-4-0-0-8---8-x-4---4---|
F#-------------0-0-8---8-x-4---4---------------0-0-8---8-x-4---4---|
B--------------0-0-8---8-x-4---4---------------0-0-8---8-x-4---4---|
               * *                             * *
"NEVER EVER SURRENDER! I WON'T ALLOW IT!"
"NEVER EVER SURRENDER! I WON'T ALLOW IT!"

    E E E E E E E E E E E SSS E E E E E E E E E E E E E E SSS E E E
C#------------------------------------------------------------------|
G#------------------------------------------------------------------|
E-------------------------------------------------------------------|
B---4-4-4-4-4-4-4-0-0-0-0-7br-7-7-7-4-4-4-4-4-4-4-0-0-0-0-7br-7-7-7-|
F#--4-4-4-4-4-4-4-0-0-0-0-7br-7-7-7-4-4-4-4-4-4-4-0-0-0-0-7br-7-7-7-|
B---4-4-4-4-4-4-4-0-0-0-0-7br-7-7-7-4-4-4-4-4-4-4-0-0-0-0-7br-7-7-7-|

"My state of mind gets so one-sided. My state of mind gets so one-sided"

Guitars 1+2
    E E E E E E E E E E E SSS E E E E E E E E E E E E E E SSS E E E
C#------------------------------------------------------------------|
G#------------------------------------------------------------------|
E-------------------------------------------------------------------|
B---4-4-4-4-4-4-4-0-0-0-0-7br-7-7-7-4-4-4-4-4-4-4-0-0-0-0-7br-7-7-7-|
F#--4-4-4-4-4-4-4-0-0-0-0-7br-7-7-7-4-4-4-4-4-4-4-0-0-0-0-7br-7-7-7-|
B---4-4-4-4-4-4-4-0-0-0-0-7br-7-7-7-4-4-4-4-4-4-4-0-0-0-0-7br-7-7-7-|

"My state of mind gets so one-sided. My state of mind gets so one-sided"

Guitars 1+2
   |-3-| |-3-| |-3-| |-3-| |-3-| |-3-| |-3-| |-3-|
   E E E E E E   E E E E E   E E E E E   E E E E E
C#----------------------------------------------------|
G#----------------------------------------------------|
E-----------------------------------------------------|
B--0-3-1-0-3-1---3-1-0-3-1---3-1-0-3-1---3-1-0-3-1----|
F#-0-3-1-0-3-1---3-1-0-3-1---3-1-0-3-1---3-1-0-3-1----|
B--0-3-1-0-3-1---3-1-0-3-1---3-1-0-3-1---3-1-0-3-1----|

"DESPISE!!!! DESPISE!!!!!"

   |-3-| |-3-| |-3-| |-3-| |-3-| |-3-| |-3-| |-3-|
   E E E E E E   E E E E E   E E E E E   E E E E E
C#----------------------------------------------------|
G#----------------------------------------------------|
E-----------------------------------------------------|
B--0-3-1-0-3-1---3-1-0-3-1---3-1-0-3-1---3-1-0-3-1----|
F#-0-3-1-0-3-1---3-1-0-3-1---3-1-0-3-1---3-1-0-3-1----|
B--0-3-1-0-3-1---3-1-0-3-1---3-1-0-3-1---3-1-0-3-1----|

"DESPISE!!!! DESPISE!!!!!"

Guitar 1
    E E E E E E E E E E E E E E E E E E E E E E E E E E E E E E E E
|C#-----------------------------------------------------------------|
|G#-----------------------------------------------------------------|
|E--9\8-8-9\8-8-9\8-9\8-8-9\8-8-9\8-9\8-8-9\8-8-9\8-9\8-8-9\8-8-9\8-|
|B--x---x-x---x-x---x---x-x---x-x---x---x-x---x-x---x---x-x---x-x---|
|F#-7\6-6-7\6-6-7\6-7\6-6-7\6-6-7\6-7\6-6-7\6-6-7\6-7\6-6-7\6-6-7\6-|
|B------------------------------------------------------------------|
|                                                                   |
|Guitar 2                                                           |
|   W...                                                            |
|C#-----------------------------------------------------------------|
|G#-----------------------------------------------------------------|
|E------------------------------------------------------------------|
|B--0~~~~~~~~~~~~~~~~~~~~~~~~~~~~~~~~~~~~~~~~~~~~~~~~~~~~~~~~~~~~~~~|
|F#-0~~~~~~~~~~~~~~~~~~~~~~~~~~~~~~~~~~~~~~~~~~~~~~~~~~~~~~~~~~~~~~~|
|B--0~~~~~~~~~~~~~~~~~~~~~~~~~~~~~~~~~~~~~~~~~~~~~~~~~~~~~~~~~~~~~~~|

Guitar 1
    E E E E E E E E E E E E E E E E E E E E E E E E E E E E E E E E
|C#-----------------------------------------------------------------|
|G#-----------------------------------------------------------------|
|E--9\8-8-9\8-8-9\8-9\8-8-9\8-8-9\8-9\8-8-9\8-8-9\8-9\8-8-9\8-8-9\8-|
|B--x---x-x---x-x---x---x-x---x-x---x---x-x---x-x---x---x-x---x-x---|
|F#-7\6-6-7\6-6-7\6-7\6-6-7\6-6-7\6-7\6-6-7\6-6-7\6-7\6-6-7\6-6-7\6-|
|B------------------------------------------------------------------|
|                                                                   |
|Guitar 2                                                           |
|  ...Holds to a ringing feedback                                   |
|C#-----------------------------------------------------------------|
|G#-----------------------------------------------------------------|
|E------------------------------------------------------------------|
|B-~~~~~~~~~~~~~~~~~~~~~~~~~~~~~~~~~~~~~~~~~~~~~~~~~~~~~~~~~~~~/12\-|
|F#~~~~~~~~~~~~~~~~~~~~~~~~~~~~~~~~~~~~~~~~~~~~~~~~~~~~~~~~~~~~/12\-|
|B-~~~~~~~~~~~~~~~~~~~~~~~~~~~~~~~~~~~~~~~~~~~~~~~~~~~~~~~~~~~~/12\-|

Guitar 1
                                                            H
|C#-----------------------------------------------------------------|
|G#-----------------------------------------------------------------|
|E------------------------------------------------------------------|
|B------------------------------------------------------------------|
|F#-----------------------------------------------------------------|
|B----------------------------------------------------------3b~~~~~~|
|Guitar 2                                                           |
|   E E E E E E E E E E E E E E E E E E E E E E E E E E E E E E E E |
|C#-----------------------------------------------------------------|
|G#-----------------------------------------------------------------|
|E------------------------------------------------------------------|
|B--3/5-0-0-3/5-0-0-3/5-0-0-3/5-0-0-3/5-0-0-3/5-0-0-3/5-0-0-3/5-0-0-|
|F#-3/5-0-0-3/5-0-0-3/5-0-0-3/5-0-0-3/5-0-0-3/5-0-0-3/5-0-0-3/5-0-0-|
|B--3/5-0-0-3/5-0-0-3/5-0-0-3/5-0-0-3/5-0-0-3/5-0-0-3/5-0-0-3/5-0-0-|
        * *     * *     * *     * *     * *     * *     * *     * *

Guitars 1+2
    E E E E E E E E E E E E E E E E E E E E E E E E E E E E E E E E
|C#-----------------------------------------------------------------|
|G#-----------------------------------------------------------------|
|E------------------------------------------------------------------|
|B--3/5-0-0-3/5-0-0-3/5-0-0-3/5-0-0-3/5-0-0-3/5-0-0-3/5-0-0-3/5-0-0-|
|F#-3/5-0-0-3/5-0-0-3/5-0-0-3/5-0-0-3/5-0-0-3/5-0-0-3/5-0-0-3/5-0-0-|
|B--3/5-0-0-3/5-0-0-3/5-0-0-3/5-0-0-3/5-0-0-3/5-0-0-3/5-0-0-3/5-0-0-|
        * *     * *     * *     * *     * *     * *     * *     * *
"CUT ME! SHOW ME! ENTER! I AM WILLING AND ABLE AND NEVER ANY DANGER TO
MYSELF! UGH!"


|C#-----------------------------------------------------------------|
|G#-----------------------------------------------------------------|
|E------------------------------------------------------------------|
|B--3/5-0-0-3/5-0-0-3/5-0-0-3/5-0-0-3/5-0-0-3/5-0-0-3/5-0-0-3/5-0-0-|
|F#-3/5-0-0-3/5-0-0-3/5-0-0-3/5-0-0-3/5-0-0-3/5-0-0-3/5-0-0-3/5-0-0-|
|B--3/5-0-0-3/5-0-0-3/5-0-0-3/5-0-0-3/5-0-0-3/5-0-0-3/5-0-0-3/5-0-0-|
        * *     * *     * *     * *     * *     * *     * *     * *


"KNOWLEDGE IN MY PAIN, KMOWLEDGE IN MY PAIN, OR WAS MY TOLERANCE A PHASE?
EVERYTHING OUT OF MY WAY,
I CAN'T DIE!!!"

    E E E E E E E E E E E E E E E E E E E E E E E E E E E E E E E E
|C#-----------------------------------------------------------------|
|G#-----------------------------------------------------------------|
|E------------------------------------------------------------------|
|B--3/5-0-0-3/5-0-0-3/5-0-0-3/5-0-0-3/5-0-0-3/5-0-0-3/5-0-0-3/5-0-0-|
|F#-3/5-0-0-3/5-0-0-3/5-0-0-3/5-0-0-3/5-0-0-3/5-0-0-3/5-0-0-3/5-0-0-|
|B--3/5-0-0-3/5-0-0-3/5-0-0-3/5-0-0-3/5-0-0-3/5-0-0-3/5-0-0-3/5-0-0-|
        * *     * *     * *     * *     * *     * *     * *     * *


"I CAN'T DIE, I CAN'T DIE"

    E E E E E E E E E E E E E E E E E E E E E E E E E E E E E E E E
|C#-----------------------------------------------------------------|
|G#-----------------------------------------------------------------|
|E------------------------------------------------------------------|
|B--3/5-0-0-3/5-0-0-3/5-0-0-3/5-0-0-3/5-0-0-3/5-0-0-3/5-0-0-3/5-0-0-|
|F#-3/5-0-0-3/5-0-0-3/5-0-0-3/5-0-0-3/5-0-0-3/5-0-0-3/5-0-0-3/5-0-0-|
|B--3/5-0-0-3/5-0-0-3/5-0-0-3/5-0-0-3/5-0-0-3/5-0-0-3/5-0-0-3/5-0-0-|
        * *     * *     * *     * *     * *     * *     * *     * *

"I CAN'T DIE, I CAN'T DIE"

   E E E E E E E E Q   E E Q   Q   E E E E E E E E Q   E E Q   Q
C#-----------------------------------------------------------------|
G#---7-7---7-7-----------------------7-7---7-7---------------------|
E----5-5---5-5-----------------------5-5---5-5---------------------|
B--3-4-4-3-4-4-0-0-8---8-x-4---4---3-4-4-3-4-4-0-0-8---8-x-4---4---|
F#-------------0-0-8---8-x-4---4---------------0-0-8---8-x-4---4---|
B--------------0-0-8---8-x-4---4---------------0-0-8---8-x-4---4---|
               * *                             * *
"NEVER EVER SURRENDER! I WON'T ALLOW IT!"
"NEVER EVER SURRENDER! I WON'T ALLOW IT!"

   E E E E E E E E Q   E E Q   Q   E E E E E E E E Q   E E Q   Q
C#-----------------------------------------------------------------|
G#---7-7---7-7-----------------------7-7---7-7---------------------|
E----5-5---5-5-----------------------5-5---5-5---------------------|
B--3-4-4-3-4-4-0-0-8---8-x-4---4---3-4-4-3-4-4-0-0-8---8-x-4---4---|
F#-------------0-0-8---8-x-4---4---------------0-0-8---8-x-4---4---|
B--------------0-0-8---8-x-4---4---------------0-0-8---8-x-4---4---|
               * *                             * *
"NEVER EVER SURRENDER! I WON'T ALLOW IT!"
"NEVER EVER SURRENDER! I WON'T ALLOW IT!"

    E E E E E E E E E E E SSS E E E E E E E E E E E E E E SSS E E E
C#------------------------------------------------------------------|
G#------------------------------------------------------------------|
E-------------------------------------------------------------------|
B---4-4-4-4-4-4-4-0-0-0-0-7br-7-7-7-4-4-4-4-4-4-4-0-0-0-0-7br-7-7-7-|
F#--4-4-4-4-4-4-4-0-0-0-0-7br-7-7-7-4-4-4-4-4-4-4-0-0-0-0-7br-7-7-7-|
B---4-4-4-4-4-4-4-0-0-0-0-7br-7-7-7-4-4-4-4-4-4-4-0-0-0-0-7br-7-7-7-|

"My state of mind gets so one-sided. My state of mind gets so one-sided"

Guitars 1+2
    E E E E E E E E E E E SSS E E E E E E E E E E E E E E SSS E E E
C#------------------------------------------------------------------|
G#------------------------------------------------------------------|
E-------------------------------------------------------------------|
B---4-4-4-4-4-4-4-0-0-0-0-7br-7-7-7-4-4-4-4-4-4-4-0-0-0-0-7br-7-7-7-|
F#--4-4-4-4-4-4-4-0-0-0-0-7br-7-7-7-4-4-4-4-4-4-4-0-0-0-0-7br-7-7-7-|
B---4-4-4-4-4-4-4-0-0-0-0-7br-7-7-7-4-4-4-4-4-4-4-0-0-0-0-7br-7-7-7-|

"My state of mind gets so one-sided. My state of mind gets so one-sided"

    E E E E E E E E E E E SSS E E E E E E E E E E E E E E SSS E E E
C#------------------------------------------------------------------|
G#------------------------------------------------------------------|
E-------------------------------------------------------------------|
B---4-4-4-4-4-4-4-0-0-0-0-7br-7-7-7-4-4-4-4-4-4-4-0-0-0-0-7br-7-7-7-|
F#--4-4-4-4-4-4-4-0-0-0-0-7br-7-7-7-4-4-4-4-4-4-4-0-0-0-0-7br-7-7-7-|
B---4-4-4-4-4-4-4-0-0-0-0-7br-7-7-7-4-4-4-4-4-4-4-0-0-0-0-7br-7-7-7-|

"My state of mind gets so one-sided. My state of mind gets so one-sided"

Guitars 1+2
    E E E E E E E E E E E SSS E E E E E E E E E E E E E E SSS E E E
C#------------------------------------------------------------------|
G#------------------------------------------------------------------|
E-------------------------------------------------------------------|
B---4-4-4-4-4-4-4-0-0-0-0-7br-7-7-7-4-4-4-4-4-4-4-0-0-0-0-7br-7-7-7-|
F#--4-4-4-4-4-4-4-0-0-0-0-7br-7-7-7-4-4-4-4-4-4-4-0-0-0-0-7br-7-7-7-|
B---4-4-4-4-4-4-4-0-0-0-0-7br-7-7-7-4-4-4-4-4-4-4-0-0-0-0-7br-7-7-7-|

"My state of mind gets so one-sided. My state of mind gets so one-sided"

   |-3-| |-3-| |-3-| |-3-| |-3-| |-3-| |-3-| |-3-|
   E E E E E E   E E E E E   E E E E E   E E E E E
C#----------------------------------------------------|
G#----------------------------------------------------|
E-----------------------------------------------------|
B--0-3-1-0-3-1---3-1-0-3-1---3-1-0-3-1---3-1-0-3-1----|
F#-0-3-1-0-3-1---3-1-0-3-1---3-1-0-3-1---3-1-0-3-1----|
B--0-3-1-0-3-1---3-1-0-3-1---3-1-0-3-1---3-1-0-3-1----|

"DESPISE!!!! DESPISE!!!!!"

   |-3-| |-3-| |-3-| |-3-| |-3-| |-3-| |-3-| |-3-|
   E E E E E E   E E E E E   E E E E E   E E E E E
C#----------------------------------------------------|
G#----------------------------------------------------|
E-----------------------------------------------------|
B--0-3-1-0-3-1---3-1-0-3-1---3-1-0-3-1---3-1-0-3-1----|
F#-0-3-1-0-3-1---3-1-0-3-1---3-1-0-3-1---3-1-0-3-1----|
B--0-3-1-0-3-1---3-1-0-3-1---3-1-0-3-1---3-1-0-3-1----|

"DESPISE!!!! DESPISE!!!!! UGH!"

Guitar 1
    E E E E E E E E E E E E E E E E E E E E E E E E E E E E E E E E
|C#-----------------------------------------------------------------|
|G#-----------------------------------------------------------------|
|E--9\8-8-9\8-8-9\8-9\8-8-9\8-8-9\8-9\8-8-9\8-8-9\8-9\8-8-9\8-8-9\8-|
|B--x---x-x---x-x---x---x-x---x-x---x---x-x---x-x---x---x-x---x-x---|
|F#-7\6-6-7\6-6-7\6-7\6-6-7\6-6-7\6-7\6-6-7\6-6-7\6-7\6-6-7\6-6-7\6-|
|B------------------------------------------------------------------|
|                                                                   |
|Guitar 2                                                           |
|   SSE E E E SSE E SSE E E E SSE E SSE E E E SSE E SSE E E E SSE E |
|C#-----------------------------------------------------------------|
|G#-----------------------------------------------------------------|
|E------------------------------------------------------------------|
|B--xx3-x-1-0-xx3-1-xx3-x-1-0-xx3-1-xx3-x-1-0-xx3-1-xx3-x-1-0-xx3-1-|
|F#-xx3-x-1-0-xx3-1-xx3-x-1-0-xx3-1-xx3-x-1-0-xx3-1-xx3-x-1-0-xx3-1-|
|B--xx3-x-1-0-xx3-1-xx3-x-1-0-xx3-1-xx3-x-1-0-xx3-1-xx3-x-1-0-xx3-1-|

Guitar 1
    E E E E E E E E E E E E E E E E E E E E E E E E E E E E E E E E
|C#-----------------------------------------------------------------|
|G#-----------------------------------------------------------------|
|E--9\8-8-9\8-8-9\8-9\8-8-9\8-8-9\8-9\8-8-9\8-8-9\8-9\8-8-9\8-8-9\8-|
|B--x---x-x---x-x---x---x-x---x-x---x---x-x---x-x---x---x-x---x-x---|
|F#-7\6-6-7\6-6-7\6-7\6-6-7\6-6-7\6-7\6-6-7\6-6-7\6-7\6-6-7\6-6-7\6-|
|B------------------------------------------------------------------|
|                                                                   |
|Guitar 2                                                           |
|   SSE E E E SSE E SSE E E E SSE E SSE E E E SSE E SSE E E E SSE E |
|C#-----------------------------------------------------------------|
|G#-----------------------------------------------------------------|
|E------------------------------------------------------------------|
|B--xx3-x-1-0-xx3-1-xx3-x-1-0-xx3-1-xx3-x-1-0-xx3-1-xx3-x-1-0-xx3-1-|
|F#-xx3-x-1-0-xx3-1-xx3-x-1-0-xx3-1-xx3-x-1-0-xx3-1-xx3-x-1-0-xx3-1-|
|B--xx3-x-1-0-xx3-1-xx3-x-1-0-xx3-1-xx3-x-1-0-xx3-1-xx3-x-1-0-xx3-1-|
comments
We did not receive enough feedback on this tab! Please rate:
1 2 3 4 5
I want to post or [tab]
guest
You may want to rate the tab now too:
select rating
Please do not post tabs as comments. Select "correction" instead!