Oops, an error
Loading. Please wait.

Disasterpiece Bass Tab

ver2
ver2

Whole song

Interactive

More versions @911Tabs.com
3,672 views 18 this week
no commentswrite comment
1 2 3 4 5
accurate
x 5
Autoscroll
+/-
esc
set tempo
stop
Contributor
Hey! There's an official Ultimate Guitar app which is ideal
for learning songs when you're away from computer. Get the app
WARNING: You are trying to view
                                    content from Ultimate-Guitar.com
                                    in an unauthorized application,
                                    which is prohibited.

                                    Please use an official Ultimate
                                    Guitar Tabs application for iPhone,
                                    iPad or Android to access legitimate
                                    chords, guitar, bass, and drum tabs
                                    from Ultimate-Guitar.com database.

                                    Type "ultimate guitar tabs" in Apple
                                    App Store's or Android Market's
                                    search to find the application.
INTRO (0:09)                        (0:36)                    (0:54)
G|-----------------------|-------------------------------|-------------|
D|-----------------------|-------------------------------|-------------|
A|-----------------------|-------------------------------|-------------|
B|--0-0-1--0-0-1--0-0-0--|--0-0-1-0-0-1-0-0-0H2-2R0-3H1--|--000-111-0--|
*12                              *8                             *1

VERSE (1:01)                                 (1:10)
G|-------------------------------|--------------------------------|
D|-------------------------------|--------------------------------|
A|-------------------------------|--------------------------------|
B|--0-0-0-1-1-1-0-2H1-0-3H1-4H1--|--0-0-0-1-1-1-0--2H1-0-3H1-4H1--|
*4                                        *4

CHORUS (1:18)                            (1:20)
G|-----------------|---------------------------------------------------|
D|-----------------|---------------------------------------------------|
A|-----------------|---------------------------------------------------|
B|--0-0-0-1-1-1-0--|--888888888888-111111111111-00000-11111-00000-210--|
*1                                *2

(1:27)                             (1:29)
G|-----------------|---------------------------------------------------|
D|-----------------|---------------------------------------------------|
A|-----------------|---------------------------------------------------|
B|--0-0-0-1-1-1-0--|--888888888888-111111111111-00000-11111-00000-210--|
*1                                 *2


VERSE (1:43)                                        (1:58) 
G|-------------------------------------------|-----------------------------|
D|-------------------------------------------|-----------------------------|
A|-------------------------------------------|-----------------------------|
B|-(0/5-0/7\1)--0-0-0-1-1-1-0--2H1-0-3H1-4H1-|-0-0-0-1-1-1-0-2H1-0-3H1-4H1-|
*4                                                   *4 

(2:06)
--------------------------------|
--------------------------------|
--------------------------------| 
--1-1-1-2-2-2-1--2H1-0-3H1-4H1--| 
4*

CHORUS (2:15 - 2:33)


BRIDGE (2:33)           (2:42)         (3:01)             (3:20)
G|------------|------------------|------------------|------------------|
D|------------|------------------|------------------|------------------|
A|------------|------------------|------------------|------------------|
B|--0-0-1-0-0-|-0-0-3-4--1-5-6-7-|-X-0-3-4--1-6-7-8-|-X-0-3-4--1-5-6-7-|
*4                    *8              *8                      *4

(3:32)                                          (3:46)
G|----------------------------------------|-----------------|
D|----------------------------------------|-----------------|
A|----------------------------------------|-----------------|
B|--7-12--7/9--12\9--11\7--9\5--7\3--5\1--|--0-0-0-3-3-3-2--|
*1                                              *8

(4:03)
------------------------------------|
------------------------------------| 
------------------------------------| 
--(5\0)-0-0-0-3-3-3-2--3-5-5-5-6-6--| 
7*

OUTRO (4:19)                                (4:48)
G|------------------------------|------------------------------|
D|------------------------------|------------------------------|
A|------------------------------|------------------------------|
B|--(7-12\0)--X-0-3-4--1-6-7-8--|---(5/9\0)--0-0-3-4--1-5-6-7--|
*12                                                    *8


Lyrics:

I wanna slit your throat and fuck the wound 
I wanna push my face in and feel the swoon 
I wanna dig inside, find a little bit of me 
Cuz the line gets crossed when you don't come clean 

My wormwood meets your pesticide 
You'll never get out, coz you were never alive 
I am infinite, I am the infant finite 
Come a little closer and I'll show you why 

(NO ONE IS - SAFE) 
Noises, noises, people make noises 
people make noises when they're sick 
Nothing to do except hold on to NOTHING 

How does it feel to be locked inside another dream 
That never had a chance of being realized? 
What the fuck are you lookin' at? 
I'll tell you what you're lookin' at 
Everyone you ever fuckin' laughed at 

Look in my eyes for the answers - typical 
I can feel it underneath like a miracle 
Everybody in the world needs more than 
Lies and consequences to poser them 
Once again, it's me and no one else 
I can't remember if there was a someone else 
It's not mine, it's not fair, it's outta my hands 
And it's shaking - you'll never take me 

(NO ONE IS - SAFE) 
Noises, noises, people make noises 
People make noises when they're sick 
Nothing to do except hold on to NOTHING 

NOTHING! 

(HATE) Hate ain't enough to describe me 
(SCREAM) Somewhere between screaming and crying 
I'm not supposed to behere 
I'm not supoosed to be 

(WHY) When do I get to know why? 
(BITTER) Bitter as the stink of when I try 
I'm not supposed to be here 
I'm not supposed to be 
Pull your hands away 

I'm gone - goodbye - it's so depressing 
Withering away 
Take a look - inside - my soul is missing 
All I have is dead, so I'll take you with me 
Feel like I'm erased - so kill me just in case 

(COVET) Everything around me's mine 
(STY) Can't see through the sties in my eyes 
I'm not supposed to be here 
I'm not supposed to be 

(DOWN) Scratching and clawing all the way 
(STAY) You won't let me fucking stay 
I'm not supposed to be here 
I'm not supposed to be 

(LIVE) Is there another way to live? 
(DIE) Cuz it's the only way to die 
I'm not supposed to be here 
I'm not supposed to be
comments
print report bad tab
I want to post or [tab]
guest
You may want to rate the tab now too:
select rating
Please do not post tabs as comments. Select "correction" instead!