Oops, an error
Loading. Please wait.

Duality Tab

15,534 views 9 this week
13 commentsread comments
1 2 3 4 5
accurate
x 15
Autoscroll
+/-
esc
set tempo
stop
Contributor
Hey! There's an official Ultimate Guitar app which is ideal
for learning songs when you're away from computer. Get the app
WARNING: You are trying to view
                                    content from Ultimate-Guitar.com
                                    in an unauthorized application,
                                    which is prohibited.

                                    Please use an official Ultimate
                                    Guitar Tabs application for iPhone,
                                    iPad or Android to access legitimate
                                    chords, guitar, bass, and drum tabs
                                    from Ultimate-Guitar.com database.

                                    Type "ultimate guitar tabs" in Apple
                                    App Store's or Android Market's
                                    search to find the application.
#----------------------------------PLEASE NOTE---------------------------------#
#This file is the author's own work and represents their interpretation of the #
#song. You may only use this file for private study, scholarship, or research. #
#------------------------------------------------------------------------------##

                                     DUALITY
                             As recorded by Slipknot
              (From the 2004 Album VOL: 3 (THE SUBLIMINAL VERSES))

Words by Corey Taylor

Music by Slipknot
Transcribed by Travis Lausch

Gtr I (B F# B E G# C#) - 'Distortion'
Gtr II (B F# B E G# C#) - 'Distortion'
Gtr III (B F# B E G# C#) - 'Piano/Synth/Sampler/Whatever'
Gtr IV (B F# B E G# C#) - 'Sampler'
Gtr V (B F# B E G# C#) - 'Distortion'

 Intro Chorus
  Moderately Q=136
                      N.C.(B)
 4/4
                      Gtrs III, IV
  H      W            W                 +H.           +E  E
|------|----------||------------------|---------------------|
|------|----------||o-----------------|---------------------|
|------|----------||------------------|---------------------|
|------|----------||------------------|---------------------|
|------|----------||o-5---------------|-(5)-----------(5)-8-|
|------|----------||------------------|---------------------|
|
|                     Gtr V
|                     E E E E E E E E    E  E E E E E  E  E
|------|----------||------------------|---------------------|
|------|----------||o-----------------|---------------------|
|------|----------||------------------|---------------------|
|------|----------||------------------|---------------------|
|------|----------||o-----------------|---------------------|
|------|----------||--0-0-0-0-0-0-0-0-|--0--0-0-0-0-0--0--3-|


  +H.           +E   E    +E  H.           +E
|----------------------|---------------------------||
|----------------------|--------------------------o||
|----------------------|---------------------------||
|----------------------|---------------------------||
|-(8)-----------(8)-11-|-(11)-6------------(6)----o||
|----------------------|---------------------------||
|
|  E  E E E E E  E   E     E  E  E E E E E  E
|----------------------|---------------------------||
|----------------------|--------------------------o||
|----------------------|---------------------------||
|----------------------|---------------------------||
|----------------------|--------------------------o||
|--3--3-3-3-3-3--3---6-|---6--1--1-1-1-1-1--0------||


    D5                                  F5
    W                 +H.           +E  E
||------------------|---------------------|
||o-----------------|---------------------|
||------------------|---------------------|
||------------------|---------------------|
||o-5---------------|-(5)-----------(5)-8-|
||------------------|---------------------|
|
|   Gtrs I, II
|   E E E E E E E E    E  E E E E E  E  E
||------------------|---------------------|
||o-----------------|---------------------|
||------------------|---------------------|
||------------------|---------------------|
||o-----------------|---------------------|
||--0-0-0-0-0-0-0-0-|--0--0-0-0-0-0--0--3-|


                    G#5        Eb5
  +H.           +E   E    +E   H.           +E
|----------------------|-------------------------||
|----------------------|------------------------o||
|----------------------|-------------------------||
|----------------------|-------------------------||
|-(8)-----------(8)-11-|-(11)--6------------(6)-o||
|----------------------|-------------------------||
|
|  E  E E E E E  E   E    +E   E  E E E E E  E
|----------------------|-------------------------||
|----------------------|------------------------o||
|----------------------|-------------------------||
|----------------------|-------------------------||
|----------------------|------------------------o||
|--3--3-3-3-3-3--3---6-|--(6)\-1--1-1-1-3-1--0---||


      D5                                      F5D5F5
      Gtrs I, II
                                            PM--|
    E E S E S E Q  E   E Q  E S E S E E   E E E E Q   Q
||-------------------|------------------|--------------------|
||o------------------|------------------|--------------------|
||-------------------|------------------|------------[5]b7---|
||----0---0---0----0-|-0----0---0---0---|---0-1-0-3----------|
||o---0---0---0----0-|-0----0---0---0---|---0-1-0-3----------|
||----0---0---0----0-|-0----0---0---0---|---0-1-0-3----------|


  D5                                      D5EbD5Ab5
                                          PM--|      ~~~
  E E S E S E Q  E   E Q  E S E S E E   E E E E Q    Q
|------------------|------------------|-------------------||
|------------------|------------------|------------------o||
|------------------|------------------|-------------------||
|---0---0---0----0-|-0----0---0---0---|---0-1-0-6\--------||
|---0---0---0----0-|-0----0---0---0---|---0-1-0-6\--[3]--o||
|---0---0---0----0-|-0----0---0---0---|---0-1-0-6\--------||


  N.C.(A)
  Gtrs I, II
  PM------------------------------------------------------------------|
  S S S S S S  S  S  S  S S S S S S S   S S S S S S S S S S S S S S S S
|-------------------------------------|---------------------------------|
|-------------------------------------|---------------------------------|
|-------------------------------------|---------------------------------|
|-7-7-7-------------------------------|---------------------------------|
|-------------------------------------|---------------------------------|
|-------7-7-7-10-10-10-10-5-5-5-5-7-7-|-3-3-3-5-5-5-1-1-1-1-0-0-0-0-0-0-|


   1st Verse
    PM------------------------------------------------------------------|
    S S S S S S  S  S  S  S S S S S S S   S S S S S S S S S S S S S S S S  4x
||--------------------------------------|----------------------------------||
||o-------------------------------------|---------------------------------o||
||--------------------------------------|----------------------------------||
||--7-7-7-------------------------------|----------------------------------||
||o-------------------------------------|---------------------------------o||
||--------7-7-7-10-10-10-10-5-5-5-5-7-7-|-3-3-3-5-5-5-1-1-1-1-0-0-0-0-0-0--||


    Gtr I
    S S S S S S  S  S  S  S S S  S  S S S
||----------------------------------------|
||o---------------------------------------|
||----------------------------------------|
||--7-7-7---------------------------------|
||o-------7-7-7--8--8--8--8-----------7-7-|
||--------------------------9-9-10-10-----|
|
|   Gtr II
|   PM-------------------------------------
|   S S S S S S  S  S  S  S S S  S  S S S
||----------------------------------------|
||o---------------------------------------|
||----------------------------------------|
||--7-7-7---------------------------------|
||o---------------------------------------|
||--------7-7-7-10-10-10-10-5-5--5--5-7-7-|


  S S S  S  S  S S S S S S S S S S S  4x
|-------------------------------------||
|------------------------------------o||
|-------------------------------------||
|-------------------------------------||
|-8-8-8-10-10-10-8-8-8-8-7-7-7-7-7-7-o||
|-------------------------------------||
|
|----------------------------------|
| S S S  S  S  S S S S S S S S S S S  4x
|-------------------------------------||
|------------------------------------o||
|-------------------------------------||
|-------------------------------------||
|------------------------------------o||
|-3-3-3--5--5--5-1-1-1-1-0-0-0-0-0-0--||


  F5                              E5      Eb5
  Gtrs I, II
  PM--------------------------------|  ~~~PM
  E E S E S E E S E S   E E S E S E E  E  E
|---------------------|---------------------||
|---------------------|---------------------||
|---------------------|---------------------||
|---------------------|---------------------||
|-3-3-3-3-3-3-3-3-3-3-|-3-3-3-3-3-2-2-----1-||
|-3-3-3-3-3-3-3-3-3-3-|-3-3-3-3-3-2-2-[2]-1-||


   1st Chorus
    D5                              F5
    Gtrs I, II
    E E E E E E E E   E E E E E E E E
||------------------|-----------------|
||o-----------------|-----------------|
||------------------|-----------------|
||------------------|-----------------|
||o-----------------|-----------------|
||--0-0-0-0-0-0-0-0-|-0-0-0-0-0-0-0-3-|


                  Ab5      Eb5
  +E  E E E E E E E   +E   E E +E  E E E E
|-------------------|-----------------------||
|-------------------|----------------------o||
|-------------------|-----------------------||
|-------------------|-----------------------||
|-------------------|----------------------o||
|-(3)-3-3-3-3-3-3-6-|-(6)\-1-1-(1)-1-3-1-0--||


 Interlude
  N.C.(A)
  Gtrs I, II  Gtr I
  PM------------------------------------------------------------------|
  S S S S S S  S  S  S  S S S S S S S   S S S S S S S S S S S S S S S S
|-------------------------------------|---------------------------------|
|-------------------------------------|---------------------------------|
|-------------------------------------|---------------------------------|
|-7-7-7-------------------------------|---------------------------------|
|-------------------------------------|---------------------------------|
|-------7-7-7-10-10-10-10-5-5-5-5-7-7-|-3-3-3-5-5-5-1-1-1-1-0-0-0-0-0-0-|


                                         F5 G5 Eb5D5
  PM---------------------------------|
  S S S S S S  S  S  S  S S S S  S S S   E. E. E. E. Q
|--------------------------------------|----------------|
|--------------------------------------|----------------|
|--------------------------------------|----------------|
|-7-7-7--------------------------------|----------------|
|--------------------------------------|-3--5--1--0-----|
|-------7-7-7-10-10-10-10-5-5-5--5-7-7-|-3--5--1--0-----|
|
| Gtr II
| H                  Q        Q          E. E. E. E. Q
|--------------------------------------|----------------|
|--------------------------------------|----------------|
|--------------------------------------|----------------|
|--------------------------------------|----------------|
|-------------------/6s=======2\-------|-3--5--1--0-----|
|-------------------/6s=======2\-------|-3--5--1--0-----|


   2nd Verse
    N.C.(A)
    Gtrs I, II
    PM------------------------------------------------------------------|
    S S S S S S  S  S  S  S S S S S S S   S S S S S S S S S S S S S S S S
||--------------------------------------|----------------------------------||
||o-------------------------------------|---------------------------------o||
||--------------------------------------|----------------------------------||
||--7-7-7-------------------------------|----------------------------------||
||o-------------------------------------|---------------------------------o||
||--------7-7-7-10-10-10-10-5-5-5-5-7-7-|-3-3-3-5-5-5-1-1-1-1-0-0-0-0-0-0--||


    Gtr I
    S S S S S S  S  S  S  S S S  S  S S S
||----------------------------------------|
||o---------------------------------------|
||----------------------------------------|
||--7-7-7---------------------------------|
||o-------7-7-7--8--8--8--8-----------7-7-|
||--------------------------9-9-10-10-----|
|
|   Gtr II
|   PM-------------------------------------
|   S S S S S S  S  S  S  S S S  S  S S S
||----------------------------------------|
||o---------------------------------------|
||----------------------------------------|
||--7-7-7---------------------------------|
||o---------------------------------------|
||--------7-7-7-10-10-10-10-5-5--5--5-7-7-|


  S S S  S  S  S S S S S S S S S S S
|-------------------------------------||
|------------------------------------o||
|-------------------------------------||
|-------------------------------------||
|-8-8-8-10-10-10-8-8-8-8-7-7-7-7-7-7-o||
|-------------------------------------||
|
|----------------------------------|
| S S S  S  S  S S S S S S S S S S S
|-------------------------------------||
|------------------------------------o||
|-------------------------------------||
|-------------------------------------||
|------------------------------------o||
|-3-3-3--5--5--5-1-1-1-1-0-0-0-0-0-0--||


  F5                              E5      Eb5
  Gtrs I, II
  PM--------------------------------|  ~~~PM
  E E S E S E E S E S   E E S E S E E  E  E
|---------------------|---------------------|
|---------------------|---------------------|
|---------------------|---------------------|
|---------------------|---------------------|
|-3-3-3-3-3-3-3-3-3-3-|-3-3-3-3-3-2-2-----1-|
|-3-3-3-3-3-3-3-3-3-3-|-3-3-3-3-3-2-2-[2]-1-|


   2nd Chorus
    D5                              F5
    Gtrs I, II
    E E E E E E E E   E E E E E E E E
||------------------|-----------------|
||o-----------------|-----------------|
||------------------|-----------------|
||------------------|-----------------|
||o-----------------|-----------------|
||--0-0-0-0-0-0-0-0-|-0-0-0-0-0-0-0-3-|


                  Ab5      Eb5
  +E  E E E E E E E   +E   E E +E  E E E E
|-------------------|-----------------------||
|-------------------|----------------------o||
|-------------------|-----------------------||
|-------------------|-----------------------||
|-------------------|----------------------o||
|-(3)-3-3-3-3-3-3-6-|-(6)\-1-1-(1)-1-3-1-0--||


    D5                                         F5
    Gtr I
                                        ~~~
     E  E E E E  E  E  E    E  E  E  E  Q.     E
||-----------------------|-----------------------|
||o----------------------|-----------------------|
||----------7-7s10-10s12-|-12s14-14s15-14--------|
||------7-7--------------|-----------------------|
||o---------5-5s=8--8s10-|-10s12-12s13-12--------|
||------7-7--------------|---------------------3-|
|
|   Gtr II
|   +E  E E E E  E  E  E    E  E  E  E  E  E E E
||-----------------------|-----------------------|
||o----------------------|-----------------------|
||-----------------------|-----------------------|
||-----------------------|-----------------------|
||o----------------------|-----------------------|
||--(0)-0-0-0-0--0--0--0-|--0--0--0--0--0--0-0-3-|


                  Ab5      Eb5
  +E  E E E E E E E   +E   E E +E  E E E E
|-------------------|-----------------------||
|-------------------|----------------------o||
|-------------------|-----------------------||
|-------------------|-----------------------||
|-------------------|----------------------o||
|-(3)-3-3-3-3-3-3-6-|-(6)\-1-1-(1)-1-3-1-0--||
|
| +E  E E E E E E E   +E   E E +E  E E E E
|-------------------|-----------------------||
|-------------------|----------------------o||
|-------------------|-----------------------||
|-------------------|-----------------------||
|-------------------|----------------------o||
|-(3)-3-3-3-3-3-3-6-|-(6)\-1-1-(1)-1-3-1-0--||


   Bridge
    D5                                        D5EbD5F5
    Gtrs I, II
                                              PM--|
    +E  E S E S E Q  E   E Q  E S E S E E   E E E E Q   Q
||---------------------|------------------|--------------------|
||o--------------------|------------------|--------------------|
||---------------------|------------------|------------[5]b7---|
||------0---0---0----0-|-0----0---0---0---|---0-1-0-3----------|
||o-----0---0---0----0-|-0----0---0---0---|---0-1-0-3----------|
||--(0)-0---0---0----0-|-0----0---0---0---|---0-1-0-3----------|


  D5                                      D5EbD5Ab5
                                                     ~~~
  E E S E S E Q  E   E Q  E S E S E E   E E E E Q    Q
|------------------|------------------|-------------------||
|------------------|------------------|------------------o||
|------------------|------------------|-------------------||
|---0---0---0----0-|-0----0---0---0---|---0-1-0h6\--------||
|---0---0---0----0-|-0----0---0---0---|---0-1-0h6\--[3]--o||
|---0---0---0----0-|-0----0---0---0---|---0-1-0h6\--------||


    Eb5                                       E5EbE5
    E E S E S E Q  E   E Q  E S E S E E   E E E E E E  Q
||-------------------|------------------|---------------------|
||o------------------|------------------|---------------------|
||-------------------|------------------|-------------[5]b7---|
||----1---1---1----1-|-1----1---1---1---|---1-2-1-2-----------|
||o---1---1---1----1-|-1----1---1---1---|---1-2-1-2-----------|
||----1---1---1----1-|-1----1---1---1---|---1-2-1-2-----------|


  Eb5                                       E5EbAb5 D5
  E E S E S E Q  E   E Q  E S E S E E   E E E E Q   Q
|------------------|------------------|-----------------||
|------------------|------------------|----------------o||
|------------------|------------------|-----------------||
|---1---1---1----1-|-1----1---1---1---|---1-2-1-6\--0---||
|---1---1---1----1-|-1----1---1---1---|---1-2-1-6\--0--o||
|---1---1---1----1-|-1----1---1---1---|---1-2-1-6\--0---||


  F5                              E5    Eb5
  PM------------------------------------|
  E E S E S E E S E S   E E S E S E E E E
|---------------------|-------------------|
|---------------------|-------------------|
|---------------------|-------------------|
|---------------------|-------------------|
|-3-3-3-3-3-3-3-3-3-3-|-3-3-3-3-3-2-2-2-1-|
|-3-3-3-3-3-3-3-3-3-3-|-3-3-3-3-3-2-2-2-1-|


  N.C.
  PM--------------------------------------------------------------|
  S S S S S S S S S S S S S S S S   S S S S S S S S S S S S S S S S   W
|---------------------------------|---------------------------------|------||
|---------------------------------|---------------------------------|------||
|---------------------------------|---------------------------------|------||
|---------------------------------|---------------------------------|------||
|---------------------------------|-------------1-1-1-1-------------|------||
|-0-0-0-3-3-3-1-1-1-1-4-4-2-2-5-5-|-0-0-0-3-3-3---------3-3-1-1-4-4-|------||


   3rd Chorus
    D5                              F5
    Gtrs I, II
    E E E E E E E E   E E E E E E E E
||------------------|-----------------|
||o-----------------|-----------------|
||------------------|-----------------|
||------------------|-----------------|
||o-----------------|-----------------|
||--0-0-0-0-0-0-0-0-|-0-0-0-0-0-0-0-3-|


                  Ab5      Eb5
  +E  E E E E E E E   +E   E E +E  E E E E
|-------------------|-----------------------||
|-------------------|----------------------o||
|-------------------|-----------------------||
|-------------------|-----------------------||
|-------------------|----------------------o||
|-(3)-3-3-3-3-3-3-6-|-(6)\-1-1-(1)-1-3-1-0--||


    D5                                         F5
    Gtr I
                                        ~~~
     E  E E E E  E  E  E    E  E  E  E  Q.     E
||-----------------------|-----------------------|
||o----------------------|-----------------------|
||----------7-7s10-10s12-|-12s14-14s15-14--------|
||------7-7--------------|-----------------------|
||o---------5-5s=8--8s10-|-10s12-12s13-12--------|
||------7-7--------------|---------------------3-|
|
|   Gtr II
|   +E  E E E E  E  E  E    E  E  E  E  E  E E E
||-----------------------|-----------------------|
||o----------------------|-----------------------|
||-----------------------|-----------------------|
||-----------------------|-----------------------|
||o----------------------|-----------------------|
||--(0)-0-0-0-0--0--0--0-|--0--0--0--0--0--0-0-3-|


                  Ab5      Eb5
  +E  E E E E E E E   +E   E E +E  E E E E
|-------------------|-----------------------||
|-------------------|----------------------o||
|-------------------|-----------------------||
|-------------------|-----------------------||
|-------------------|----------------------o||
|-(3)-3-3-3-3-3-3-6-|-(6)\-1-1-(1)-1-3-1-0--||
|
| +E  E E E E E E E   +E   E E +E  E E E E
|-------------------|-----------------------||
|-------------------|----------------------o||
|-------------------|-----------------------||
|-------------------|-----------------------||
|-------------------|----------------------o||
|-(3)-3-3-3-3-3-3-6-|-(6)\-1-1-(1)-1-3-1-0--||


 Outro
  D5                                              EbD5F5
  Gtrs I, II
                                                PM--|
  +E  E S E S E Q  S S   S S Q  E S E S E E   E E E E Q   Q
|----------------------|--------------------|-------------------|
|----------------------|--------------------|-------------------|
|----------------------|--------------------|------------[5]b7--|
|-----0---0---0----0-0-|-0-0----0---0---0---|---0-1-0-3---------|
|-----0---0---0----0-0-|-0-0----0---0---0---|---0-1-0-3---------|
|-(0)-0---0---0----0-0-|-0-0----0---0---0---|---0-1-0-3---------|


  D5                                            EbD5Ab5   F5
                                              PM--|
                                                    |-3-| |-3-|
  E E S E S E Q  S S   S S Q  E S E S E E   E E E E E E E E E E
|--------------------|--------------------|----------------------|
|--------------------|--------------------|----------------------|
|--------------------|--------------------|----------------------|
|---0---0---0----0-0-|-0-0----0---0---0---|---0-1-0-6-6-6-3-3-3--|
|---0---0---0----0-0-|-0-0----0---0---0---|---0-1-0-6-6-6-3-3-3--|
|---0---0---0----0-0-|-0-0----0---0---0---|---0-1-0-6-6-6-3-3-3--|


  Eb5       D5                                          EbD5F5
 2/4     4/4
            PM----------------------------------------------|
  |-3-|
  Q Q Q   E E S E S E Q  S S   S S Q  E S E S E E   E E E E Q   Q
|-------|--------------------|--------------------|-------------------|
|-------|--------------------|--------------------|-------------------|
|-------|--------------------|--------------------|------------[5]b7--|
|-1-1-1-|---0---0---0----0-0-|-0-0----0---0---0---|---0-1-0-3---------|
|-1-1-1-|---0---0---0----0-0-|-0-0----0---0---0---|---0-1-0-3---------|
|-1-1-1-|---0---0---0----0-0-|-0-0----0---0---0---|---0-1-0-3---------|


  D5                                            EbD5
  PM----------------------------------------------|  ~~~~~~~~
  E E S E S E Q  S S   S S Q  E S E S E E   E E E E  Q    Q
|--------------------|--------------------|-------------------|
|--------------------|--------------------|-------------------|
|--------------------|--------------------|-------------------|
|---0---0---0----0-0-|-0-0----0---0---0---|---0-1-0-----------|
|---0---0---0----0-0-|-0-0----0---0---0---|---0-1-0------[3]--|
|---0---0---0----0-0-|-0-0----0---0---0---|---0-1-0-[6]-------|


  D5                                            EbD5F5
                 PM------|                    PM--|
  E E S E S E Q  S S   S S Q  E S E S E E   E E E E Q   Q
|--------------------|--------------------|-------------------|
|--------------------|--------------------|-------------------|
|--------------------|--------------------|------------[5]b7--|
|---0---0---0----0-0-|-0-0----0---0---0---|---0-1-0-3---------|
|---0---0---0----0-0-|-0-0----0---0---0---|---0-1-0-3---------|
|---0---0---0----0-0-|-0-0----0---0---0---|---0-1-0-3---------|


  D5                                            EbD5Ab5
                 PM------|                    PM--|      ~~~
  E E S E S E Q  S S   S S Q  E S E S E E   E E E E Q    Q
|--------------------|--------------------|------------------*|
|--------------------|--------------------|------------------*|
|--------------------|--------------------|------------------*|
|---0---0---0----0-0-|-0-0----0---0---0---|---0-1-0-6\-------*|
|---0---0---0----0-0-|-0-0----0---0---0---|---0-1-0-6\--[3]--*|
|---0---0---0----0-0-|-0-0----0---0---0---|---0-1-0-6\-------*|



***************************************************************************************
* Generated using Power Tab Editor by Brad Larsen - http://powertab.guitarnetwork.org *
***************************************************************************************
comments
print report bad tab
13 comments total. Showing first comments.
-1 reply
thm_05 wrote on August 11 2004, 12:00 am

wtf???

-2 reply
silvertone wrote on December 4 2004, 12:00 am

5 guitars?

-2 reply
silvertone wrote on December 4 2004, 12:00 am

5 guitars?

I want to post or [tab]
guest
You may want to rate the tab now too:
select rating
Please do not post tabs as comments. Select "correction" instead!