Oops, an error
Loading. Please wait.

Mate Feed Kill Repeat Tab

11,645 views 9 this week
10 commentsread comments
1 2 3 4 5
excellent!
x 8
add to favorites launch autoscroll
font size
0
reset
Autoscroll
+/-
esc
set tempo
stop
Contributor
WARNING: You are trying to view
                                    content from Ultimate-Guitar.com
                                    in an unauthorized application,
                                    which is prohibited.

                                    Please use an official Ultimate
                                    Guitar Tabs application for iPhone,
                                    iPad or Android to access legitimate
                                    chords, guitar, bass, and drum tabs
                                    from Ultimate-Guitar.com database.

                                    Type "ultimate guitar tabs" in Apple
                                    App Store's or Android Market's
                                    search to find the application.
band: Slipknot
album: MFKR!

tabbed by: Adam Kahn, funeralforafrie, Black Dog, Joe, Sam, Rob, Lisa, Dan
Tom, Ben, Lee

Slipknot

RIFF A (2:10)
COUNT|1---2---3---4---1---2---3---4---|
    D|--------------------------------|
    A|--------------------------------|
    F|--------------------------------|
    C|--------------------------------|    x4
    G|0-0---0-0-0---0-0-0---0-0-0-1---|
    C|0-0---0-0-0---0-0-0---0-0-0-1---|
P.M.  - -   - - -   - - -   - - -

RIFF B (2:24)
COUNT|1---2---3---4---1---2---3---4---| 
    D|--------------------------------|
    A|--------------------------------|
    F|--------------------------------|
    C|--------------------------------|    x4
    G|0-0-----0-0-----0-0-----0-0-1---|
    C|0-0---010-0---010-0---010-0-1---|
P.M.  - -   --- -   --- -   --- -  
             ^       ^       ^
RIFF C (2:38)
COUNT|1---2---3---4---1---2---3---4---|
    D|--------------------------------|
    A|--------------------------------|
    F|--------------------------------|
    C|--------------------------------|    x4
    G|5-5-----3-3-----0-0---0-0-0-1---|
    C|5-5-22223-3-11110-0---0-0-0-1---|
P.M.  - - ----- - ----- -   - - -
           ^ ^     ^ ^ 
FILL A (2:53)
COUNT|4---|
    D|----|
    A|----|
    F|----|
    C|----|     
    G|3\2-|
    C|3\2-|

RIFF D (2:54)
COUNT|1---2---3---4---|
    D|----------------|
    A|----------------|
    F|----------------|
    C|----------------|    x8   
    G|0-0-----0-0-3\2-|
    C|0-0-01000-0-3\2-|
P.M.  - - ----- - 
           ^ ^   
RIFF E (3:08)
COUNT|1---2---3---4---|
    D|----------------|
    A|----------------|
    F|----------------|
    C|----------------|    x2   
    G|------------1---|
    C|000-000-000-1---|
P.M.  --- --- --- 
       ^   ^   ^
Then play RIFF D x2 and after that repeat the combination of those 
two riffs(RIFF E x2,RIFF D x2) once more.This combination is COMBO A .

RIFF F (3:23)
COUNT|1---2---3---4---|
    D|----------------|
    A|----------------|
    F|----------------|
    C|----------------|    x2   
    G|----------------|
    C|5-5-22223-3-1111|
P.M.  - - ----- - ----
           ^ ^     ^ ^ 

RIFF G (3:26)
COUNT|1---2---3---4---|
    D|----------------|
    A|----------------|
    F|----------------|
    C|----------------|    x2   
    G|----------------|
    C|5555222233331111|
P.M.  ----------------
       ^ ^ ^ ^ ^ ^ ^ ^ 

Then play FILL A (3:30).
Then play RIFF D x8(3:30),COMBO A(3:45),RIFF F x2(3:59),RIFF G x2(4:02).

FILL B (4:07)
COUNT|4---| 
    D|----|
    A|----|
    F|----|
    C|----|     
    G|--1-|
    C|--1-|

RIFF H (4:08)
COUNT|1---2---3---4---1---2---3---4---| 
    D|--------------------------------|
    A|--------------------------------|
    F|--------------------------------|
    C|--------------------------------|    x4   
    G|0-0-----0-0-----0-0-----0-0---1-|
    C|0-0---010-0---010-0---010-0---1-|
P.M.  - -   --- -   --- -   --- -  

RIFF I (4:22)
COUNT|1---2---3---4---1---2---3---4---| 
    D|--------------------------------|
    A|--------------------------------|
    F|--------------------------------|
    C|--------------------------------|    x2 
    G|0-----------------------------1-|
    C|0-----------------------------1-|

Then play RIFF H x2(4:29).

RIFFS K & L are played in the same time.When RIFF K is played twice 
by Guitar 1, RIFF l is played once by Guitar 2.  

GUITAR 1
RIFF K (4:36)
COUNT|1---2---3---4---1---2---3---4---1---2---3---4---1---2---3---4---|
    D|----------------------------------------------------------------|
    A|----------------------------------------------------------------|
    F|----------------------------------------------------------------|
    C|----------------------------------------------------------------|    x4 
    G|----------------------------------------------------------------|
    C|0-----7~~---------------7---5---8~~---7~~---5~~-----------------|

GUITAR 2
RIFF L (4:36) 
COUNT|1---2---3---4---1---2---3---4---1---2---3---4---1---2---3---4---|  |
    D|----------------------------------------------------------------|  |
    A|------7-----------------8---7-8-10----9-------------------------|  |
    F|7-------------------------------------------7---------------5---|  |
    C|----------------------------------------------------------------|  |  
    G|----------------------------------------------------------------|  |
    C|----------------------------------------------------------------|  |   
                                                                         | 
RIFF L (cont.)                                                           |  x2 
COUNT|1---2---3---4---1---2---3---4---1---2---3---4---1---2---3---4---|  |
    D|----------------------------------------------------------------|  |
    A|------7-----------------8---7-----------------------------------|  |
    F|7-------------------------------7-----5-------------------------|  |
    C|----------------------------------------------------------------|  |   
    G|----------------------------------------------------------------|  |
    C|----------------------------------------------------------------|  |

RIFFS M & N are played at the same time. 

GUITAR 1 
RIFF M (5:05)
COUNT|1---2---3---4---1---2---3---4---| 
    D|--------------------------------|
    A|--------------------------------|
    F|----7-----5-----3-------3-----3-|
    C|--7-----5-----3-----3-------3---|    x2 
    G|5-----3-----1-----1---1---1-----|
    C|--------------------------------|
P.M.  - -   - -   - -   - - -   - -
                          ^   ^   ^
GUITAR 2
RIFF N (5:05)
COUNT|1---2---3---4---1---2---3---4---| 
    D|--------------------------------|
    A|----10----8-----6-------6-----6-|
    F|--7-----5-----3-----3-------3---|
    C|7-----5-----3-----3---3---3-----|    x2 
    G|--------------------------------|
    C|--------------------------------|
P.M.  - -   - -   - -   - - -   - -
                          ^   ^   ^
Then keep playing RIFF M on GUITAR 1 for 2 more times but in GUITAR 2 play RIFF P:

GUITAR 2
RIFF P (5:12)
COUNT|1---2---3---4---1---2---3---4---| 
    D|--------------------------------|
    A|----3-----5-----6-------6-----6-|
    F|--2-----0-----3-----3-------3---|
    C|0-----2-----3-----3---3---3-----|    x2 
    G|--------------------------------|
    C|--------------------------------|
P.M.  - -   - -   - -   - - -   - -
                          ^   ^   ^
RIFF Q (5:19)
COUNT|1---2---3---4---1---2---3---4---| 
    D|--------------------------------|
    A|--------------------------------|
    F|--------------------------------|
    C|--------------------------------|    x4 
    G|0-----0-----0-----0-----0---0h1-|
    C|0-----0-----0-----0-----0---0h1-|
P.M.  -     -     -     -     -

RIFF R (5:33)
COUNT|1---2---3---4---1---2---3---4---| 
    D|--------------------------------|
    A|--------------------------------|
    F|--------------------------------|
    C|------------------3-------------|    x4 
    G|0-----3-----2-----1-----0-3-2---|
    C|0-----3-----2-----------0-3-2---|

Then play RIFF Q x4(5:47)

RIFF S (6:01)
COUNT|1---2---3---4---1---2---3---4---| 
    D|--------------------------------|
    A|--------------------------------|
    F|--------------------------------|
    C|--------------------------------|    x4
    G|--------------------------------|
    C|5-2-1-2-1-0-5-2-1-2-1-0-5-2-1-2-|
P.M.  - - - - - - - - - - - - - - - - 
        ^   ^   ^   ^   ^   ^   ^   ^
Then on GUITAR 1 play RIFF R x4(6:14) while playing RIFF L x1(6:14) on GUITAR 2. 
End the song by playing RIFF R x4 on GUITAR 1 while leaving GUITAR 2 open.





Gently (MFKR version)

RIFF A (0:00) (clean)
COUNT|1-------2-------3-------4-------|1-------2-------3-------4-------| \
    D|----------------1--p0-----------|----------------0---------------|  \
    A|--------3---------------3-------|--------3-----------3-------3---|   \
    F|----2-------2---------------2/3-|----3-------3-----------3-------|    \
    C|0-------------------------------|0-------------------------------|     \
    G|--------------------------------|--------------------------------|      \
    C|--------------------------------|--------------------------------|       \
                                                                                |
COUNT|1-------2-------3-------4-------|1-------2-------3-------4-------|        |
    D|--------------------------------|--------------------------------|        |
    A|--------------------------------|--------------------------------|        |
    F|--------2-------3-----------3---|--------3-------2---------------|        |
    C|----2---------------------------|--------------------------------|        |
    G|0-----------0-------0---0-------|0---0-------0-------0---0---0---|        |
    C|--------------------------------|--------------------------------|        |
                                                                                | Guitar 1 x 3
COUNT|1-------2-------3-------4-------|1-------2-------3-------4-------|        |
    D|----------------4--/5-----------|----8--p6---------------6-------|        |
    A|----5--/6---------------6-------|------------6-------6-------6---|        |
    F|----------------------------7---|----------------7---------------|        |
    C|0-----------0-------------------|0-------------------------------|        |
    G|--------------------------------|--------------------------------|        |
    C|--------------------------------|--------------------------------|        |
                                                                                |
COUNT|1-------2-------3-------4-------|1-------2-------3-------4-------|       /
    D|--------------------------------|--------------------------------|      /
    A|--------------------------------|--------------------------------|     /
    F|--------2-------3-----------3---|--------3-------2---------------|    /
    C|----2---------------------------|--------------------------------|   /
    G|0-----------0-------0---0-------|0---0-------0-------0---0---0---|  /
    C|--------------------------------|--------------------------------| /

RIFF B (0:13) (clean)
COUNT|1-------2-------3-------4-------|1-------2-------3-------4-------| \
    D|----------------8--p7-----------|----------------7---------------|  \
    A|--------10--------------10------|--------10----------10------10--|   \
    F|----10------10--------------10--|----10------10----------10------|    \
    C|0-------------------------------|0-------------------------------|     \
    G|--------------------------------|--------------------------------|      \
    C|--------------------------------|--------------------------------|       \
                                                                                |
COUNT|1-------2-------3-------4-------|1-------2-------3-------4-------|        |
    D|--------------------------------|--------------------------------|        |
    A|--------2-------3-----------3---|--------3-------2---------------|        |
    F|--------------------------------|--------------------------------|        |
    C|----2---------------------------|--------------------------------|        |
    G|0-----------0-------0---0-------|0---0-------0-------0---0---0---|        |
    C|--------------------------------|--------------------------------|        |
                                                                                | Guitar 2 x 2
COUNT|1-------2-------3-------4-------|1-------2-------3-------4-------|        |
    D|----------------0--h1-----------|----------------0--h1-----------|        |
    A|--------3---------------3-------|--------3---------------3-------|        |
    F|----2-------2---------------2---|----2-------2---------------2---|        |
    C|0-------------------------------|0-------------------------------|        |
    G|--------------------------------|--------------------------------|        |
    C|--------------------------------|--------------------------------|        |
                                                                                |
COUNT|1-------2-------3-------4-------|1-------2-------3-------4-------|       /
    D|--------------------------------|--------------------------------|      /  
    A|--------2-------3-----------3---|--------3-------2---------------|     /
    F|--------------------------------|--------------------------------|    /
    C|----2---------------------------|--------------------------------|   /
    G|0-----------0-------0---0-------|0---0-------0-------0---0---0---|  /
    C|--------------------------------|--------------------------------| /

RIFF C (0:53) (clean)
COUNT|1-------2-------3-------4-------|1-------2-------3-------4-----| \
    D|----------------1--p0-----------|----------------3-------------|  \
    A|--------3---------------3-------|--------1-----------1-------1-|   \
    F|----2-------2-------------------|----2-------2-----------2-----|    \
    C|0---------------------------0---|3-----------------------------|     \
    G|--------------------------------|------------------------------|      \
    C|--------------------------------|------------------------------|       \
                                                                              | Guitar 1+2 x 4
COUNT|1-------2-------3-------4-------|1-------2-------3-------4-----|        |
    D|----------------0---------------|----0---------------0---------|       /
    A|--------3-----------3-------3---|--------3---------------3-----|      /
    F|----0-------0-----------0-------|------------------------------|     /
    C|--------------------------------|------------------------------|    /
    G|3-------------------------------|1-----------1---3-----------3-|   / 
    C|--------------------------------|------------------------------|  /

Then (1:21) hit C-F-C open and let them ring while turning distortion on.

RIFF D (1:47)
COUNT|1---2---3---4---|1---2---3---4---|1---2---3---4---|1---2---3---4---|  
    D|----------------|----------------|----------------|----------------|   
    A|----------------|----------------|----------------|----------------|   
    F|----------------|----------------|----------------|----------------|   Guitar 1+2 x 2
    C|0---------------|8---------------|8p7-------------|----------------|    
    G|0---------------|8-----------8-8-|8p7-------------|----------------|     
    C|0---------------|8-----------8-8-|8p7-------------|----------------|     
P.M.                               - -

RIFF E (2:00)
COUNT|1---2---3---4---|1---2---3---4---|1---2---3---4---|1---2---3---4--|  \
    D|----------------|----------------|----------------|---------------|   \
    A|----------------|----------------|----------------|---------------|    \
    F|----------------|----------------|----------------|---------------|     \
    C|0-------0-------|8-------8-------|8p7-----7-----7-|----7----------|      \
    G|0-------0-------|8-------8-------|8p7-----7-----7-|----7----------|       \
    C|0---0-0-0-0-0-0-|8-8-8-8-8-8-8-8-|8p7-7-7-7-7-7-7-|7-7-7-7-7-7-7-0|        |
P.M.      - -   - - -    - - -   - - -      - -   - -    - -   - - - - -         |Guitar 1+2 x 2
                                                                                 |
COUNT|1---2---3---4---|1---2---3---4---|1---2---3---4---|1---2---3---4--|        |
    D|----------------|----------------|----------------|---------------|       /
    A|----------------|----------------|----------------|---------------|      /
    F|----------------|4-------5-------|----------------|---------------|     /
    C|1-------1-------|----------------|----7-----------|---------------|    /
    G|1-------1-------|2-------3-------|5-4-7-----------|7p6------------|   /
    C|1-1-1-1-1-1-1-1-|----------------|5-4-7-----------|----4h5--1~~~--|  /
P.M.    - - -   - - -                   - -

Now (2:28), I hope you can make out what the two guitars are playing, 
it's really easy, and I'm too bored to write it down.

Then (3:15) play RIFF E x 2

RIFF F (3:54)
COUNT|1---2---3---4---|1---2---3---4---|
    D|----------------|----------------|
    A|----------------|----------------|
    F|----------------|----------------|
    C|--------3-------|----1---------0-|
    G|--------3-------|----1---------0-|
    C|0-0-1-0-3-----0-|4-3-1-----0-0-0-|







Do Nothing/ Bitchslap

|------------------------------|
|------------------------------|
|------------------------------|
|--0-0-0-0-3--0-0-0-0-3--0-0-4-|
|--0-0-0-0-3--0-0-0-0-3--0-0-4-|
|--0-0-0-0-3--0-0-0-0-3--0-0-4-|

Smooth Jazz Part
~~~~~~~~~~~~~~~~
|----------------------------------------12--15----14h12--14-12------------15--14--13--12-|
|-14--13--12--11-----------------14--13--12--15----12-12--12-12--12--11----15--14--13--12-|
|-13--12--11--10--9--10--11--12--13--12--12--15----12-12--12-12--11--10-------------------|
|-----------------8---9--10--11-----------------------------------------------------------|
|-----------------------------------------------------------------------------------------|
|-----------------------------------------------------------------------------------------|

|--15--16--17--18-19-20-|
|--15--16--17--18-19-20-|
|-----------------------|
|-----------------------|
|-----------------------|
|-----------------------|

Second Riff in Heavy Part
~~~~~~~~~~~~~~~~~~~~~~~~~
|-------------------|
|-------------------|
|-------------------|
|--8p7-9p8-10p9-9p8-|
|--8p7-9p8-10p9-9p8-|
|--8p7-9p8-10p9-9p8-|

Funk Part
~~~~~~~~~
|--7/8-8-x-x-4-5-4-5----7/8-8-x-x-4-x-x-4-5-| 2nd guitar strums
|--7/8-8-x-x-4-5-4-5----7/8-8-x-x-4-x-x-4-5-| the strings while
|--7/8-8-x-x-4-5-4-5----7/8-8-x-x-4-x-x-4-5-| muting them and
|-------------------------------------------| fooling around
|-------------------------------------------| with the wah
|-------------------------------------------| pedal

Other Riff of Funk Part
~~~~~~~~~~~~~~~~~~~~~~~
|--3-----3-6--8-|-5--5-|
|--3-----3-6--8-|-5--5-|
|--3-----3-6--8-|-5--5-|
|---------------|------|
|---------------|------|
|---------------|------|







Only One

Riff 1
----------|-17v-----|----------|-17v------|
-17v------|---------|-17v------|----------|
----------|---------|----------|----------|
----------|---------|----------|----------|
----------|---------|----------|----------|
----------|---------|----------|----------|


Riff 2
---------------------------|
---------------------------|
---------------------------|
----3-2-------3-------2----|
-0--1-0--3-2--1--2-1--0--1-|
-0-------3-2-----2-1-----1-|


Riff 3
-4v---4/-|-4---------|
-4v------|-------3---|
-3v------|-------3---|
-3v------|---------2-|
---------|---------2-|
---------|-----------|

Riff 4
--------------|
--------------|
--------------|
-3-------2----|
-1--2-1--0----|
----2-1-------|

Riff 5
----------------------------|
----------------------------|
----------------------------|
----------------------------|
---------5--6-----------5-6-|
-3-0---0-5--6---3-0---0-5-6-|
 - -   -        - -   -     |palm muting
                                                                  
Riff 6
------------------------------|
------------------------------|
------------------------------|
------------------------------|
---------5--6-----------5-6---|
-3-0---0-5--6---3-0---0-5-6-1-|
 - -   -        - -   -     - |palm muting

Riff 7
-------------------------|-------------------------|
-------------------------|-------------------------|
-------------------------|-------------------------|
-------------------------|-------------------------|
------5--3--------5--3---|------5--3-1-2-1-2-3-2-1-|
-0--3------1-0--3------1-|-0--3------1-2-1-2-3-2-1-|
    -      -    -      -      -      - - - - - - - |palm muting

Riff 8
-----------------|
-----------------|
-----------------|
-----------------|
-1-0-1-3-4-3-1-3-|
-1-0-1-3-4-3-1-3-|





Tattered and Torn

Riff 1
-18p17h18-------------17h18p17h18----------------|
----------19h20p19h20-------------16h17p16h17p16-|
-------------------------------------------------|
-------------------------------------------------|
-------------------------------------------------|
-------------------------------------------------|
      

Riff 2
--------------------|-------------------|-------------------|-----------------|
-16-----------------|-------------------|-------------------|-11\-------------|
--------------------|-------------------|-------------------|-----------------|
--------------------|-------------------|-------------------|-----------------|
--------------------|-------------------|-------------------|-----------------|
--------------------|-------------------|-------------------|-----------------|
 Hold note using a whammy pedal. Throughout the next 3 measures.
 Listen to the cd, I have no idea how to tab it.  

Riff 3
-18\----------------|
--------------------|
--------------------|
--------------------|
--------------------|
--------------------|
 Very gradually slide down.

Riff 4
----------------------------|
----------------------------|
----------------------------|
----------------------------|
-0-0--0-1p0--0-3p0--0-1p0-4-|
-0-0--0-1p0--0-3p0--0-1p0-4-|


Riff 5
-------------------------------|
-------------------------------|
-------------------------------|
-------------------------------|
-0-0-0-0-1p0-0-0-3p0-0-0-1p0-4-|
-0-0-0-0-1p0-0-0-3p0-0-0-1p0-4-|






Confessions

E||-------------------------|---------------------------|----------------------| 
B||-------------------------|---------------------------|----------------------| 
G||--------9--------8--8----|--------9--------8---------|--10------------10----| 
D||-----9--------9-----9----|-----9--------9--------10--|----------------10----| 
A||--7--------7--------7----|--7--------7--------7------|----------------7-----| 
E||-------------------------|---------------------------|----------------------| 

                   Riff 1 

--9--9--x-x-x-x-x-11-11-x-x-x-x-x-9--9--|--x-x-x-x-x-9--9--9--9--|
--9--9--x-x-x-x-x-11-11-x-x-x-x-x-9--9--|--x-x-x-x-x-9--9--9--9--|
--9--9--x-x-x-x-x-11-11-x-x-x-x-x-9--9--|--x-x-x-x-x-11-11-11-11-|
--11-11-x-x-x-x-x-13-13-x-x-x-x-x-11-11-|--x-x-x-x-x-11-11-11-11-|
--11-11-x-x-x-x-x-13-13-x-x-x-x-x-11-11-|--x-x-x-x-x-9--9--9--9--|
--9--9--x-x-x-x-x-11-11-x-x-x-x-x-9--9--|--x-x-x-x-x-9--9--9--9--|

Riff2  

--2-2-x-x-x-x-x-4-4-x-x-x-x-x-2-2-|--x-x-x-x-x-2-2-2-1--------| 
--2-2-x-x-x-x-x-4-4-x-x-x-x-x-2-2-|--x-x-x-x-x-2-2-2-1--------| 
--2-2-x-x-x-x-x-4-4-x-x-x-x-x-2-2-|--x-x-x-x-x-4-4-4-3--------| 
--4-4-x-x-x-x-x-6-6-x-x-x-x-x-4-4-|--x-x-x-x-x-4-4-4-3--------| 
--4-4-x-x-x-x-x-6-6-x-x-x-x-x-4-4-|--x-x-x-x-x-2-2-2-1--------| 
--2-2-x-x-x-x-x-4-4-x-x-x-x-x-2-2-|--x-x-x-x-x-2-2-2-1--------| 

chorus starts here 

--x-x-2--------------|--------------------------| 
--x-x-2--------------|--------------------------| 
--x-x-4--------------|--------------------------| 
--x-x-4--------------|--------------------------| 
--x-x-2--------------|--------------------------| 
--x-x-2--------------|--0--2--3--5--6--6--5--6--| 

Chorus 

-----5-5-5-5-4-5-4-5-------------|--------------------| 
-----5-5-5-5-4-5-4-5-------------|--------------------| 
-----5-5-5-5-4-5-4-5-------------|--------------------| 
---------------------5-5-5-5-4-5-|--4-5---------------| 
--5------------------5-5-5-5-4-5-|--4-5---------------| 
---------------------5-5-5-5-4-5-|--4-5---------------| 

solo: 

------------------------------------|------5--3---8-5---------------------| 
----------------------------------0-|--3-3------6-----8-6-6~13--13--6--13-| 
------------------------------------|-------------------------------------| 
----------------------------4-5-4---|-------------------------------------| 
--------------------0-2-3-2---------|-------------------------------------| 
--7----7--10--7--4------------------|-------------------------------------| 


----13-13-13-13-10-9-7-5-7-3-7-7-7-----------|-------------------------------|
-15--------------------------------5-3-2-----|-------------------------6-4-3-|
-----------------------------------------7-5-|-------------------------------|
---------------------------------------------|-6--7--------------6-4-3-------|
---------------------------------------------|-------------6-4-3-------------|
---------------------------------------------|-------7-5-4-------------------|


--6-4-3-8-6-5-12-10-9----------------------| 
----------------------15-13-12-------------| 
-------------------------------17-15-14-15-| 
-------------------------------------------| 
-------------------------------------------| 
-------------------------------------------| 


---------------13-10-8-8---------------| 
---------12-10-----------9-7-9---------| 
--9-9-11-----------------------7-5-4-5-| 
---------------------------------------| 
---------------------------------------| 
---------------------------------------| 


--11-11-11-11-11-11-11-11-11-11-11-11-11-11-11-11-13-13-13-13-13-13-13-13-13-13-
--9--9--9--9--9--9--9--9--9--9--9--9--9--9--9--9--11-11-11-11-11-11-11-11-11-11-
--------------------------------------------------------------------------------
--------------------------------------------------------------------------------
--------------------------------------------------------------------------------
--------------------------------------------------------------------------------


--15-15-15-15-15-15-15-15-15-15-15-15-15-15-15-15-17-17-17-17-17-17-17-17-17-17-
--13-13-13-13-13-13-13-13-13-13-13-13-13-13-13-13-15-15-15-15-15-15-15-15-15-15-
--------------------------------------------------------------------------------
--------------------------------------------------------------------------------
--------------------------------------------------------------------------------
--------------------------------------------------------------------------------


--19-15-13-12-13-10-9-9-11-15--17-13-15-13-9-| 
---------------------------------------------| 
---------------------------------------------| 
---------------------------------------------| 
---------------------------------------------| 
---------------------------------------------| 


--11-7-9-5-7-3-5-------------------| 
-----------------9-7-9-7-5-4-4-5-2-| 
-----------------------------------| 
-----------------------------------| 
-----------------------------------| 
-----------------------------------| 

(I'm not sure here, it's played very fast!!!!) 

-1-1-1-1-1-1-1-1-1-1-1-1-1-1-1-1-3-3-3-3-3-3-3-3-3-3-3-3-3-3-3-3-7-7-7-7-7-7-7-
-1-1-1-1-1-1-1-1-1-1-1-1-1-1-1-1-3-3-3-3-3-3-3-3-3-3-3-3-3-3-3-3-7-7-7-7-7-7-7-
-------------------------------------------------------------------------------
-------------------------------------------------------------------------------
-------------------------------------------------------------------------------
-------------------------------------------------------------------------------

                          (After the solo, play this!) 

--12-12-15-12-10-9-10----------|--5----3----7--------| 
-------------------------------|--5----3----8--------| 
-------------------------------|--6----4----9--------| 
-------------------------------|--7----5----9--------| 
-------------------------------|--7----5----7--------| 
-------------------------------|--5----4----7--------| 

Riff 3 End of the song!!!!!!!

--3-4-4--4--1--2--1--2--7--||
--3-4-4--4--1--2--1--2--8--||
--3-4-4--4--1--2--1--2--9--||
------------------------9--||
------------------------7--||
------------------------7--||







Killers are Quiet

 Riff 1
|---------------|
|---------------|
|---------------|
|---------------|
|-14------------|
|----12h14----9-|

 Riff 2
|--------------|--------------|
|--------------|--------------|
|-5b------6--3-|-5b-----------|
|-3b--5---4--1-|-3b--5--------|
|-----3--------|-----3--------|
|--------------|--------------|

 Riff 3a                        Riff 3b
|--------------| If 3a doesn't |--------------|
|--------------| sound right,  |--------------|
|-4b------5--2-|    try 3b     |-4b--2---5--2-|
|-----4--------|               |--------------|
|--------------|               |--------------|
|--------------|               |--------------|

 Riff 4 (Bass Transcribed for Guitar)
|-----------------|
|-----------------|
|-----------------|
|-----------------|
|-----------------|
|-0-0-1-0-0-1-0-1-|



There you have it thanks for everybody who sent their tabs for
me on time so we could get this going before the new album release
comments
print report bad tab
10 comments total. Showing first comments.
-1 reply
pill2comawhite wrote on April 1 2004, 12:00 am

u realize in Gently u have the 2 notes played at the same time and they are G - 10 and high E - 2, u also realize thats impossible? (standard tunning speaking)

+1 reply
sk8aman23 wrote on April 2 2004, 12:00 am

^^^ the "high E -2" is the count, your not playing it

0 reply
Ridecleveland wrote on October 2 2006, 01:12 pm

You definatly forgot the song some feel how sad.

I want to post or [tab]
guest
You may want to rate the tab now too:
select rating
Please do not post tabs as comments. Select "correction" instead!