Oops, an error
Loading. Please wait.

Slipknot Tab

ver2
ver2

Album

Whole song

Interactive

More versions @911Tabs.com
14,591 views 27 this week
7 commentsread comments
1 2 3 4 5
excellent!
x 6
add to favorites launch autoscroll
font size
0
reset
Autoscroll
+/-
esc
set tempo
stop
Contributor
WARNING: You are trying to view
                                    content from Ultimate-Guitar.com
                                    in an unauthorized application,
                                    which is prohibited.

                                    Please use an official Ultimate
                                    Guitar Tabs application for iPhone,
                                    iPad or Android to access legitimate
                                    chords, guitar, bass, and drum tabs
                                    from Ultimate-Guitar.com database.

                                    Type "ultimate guitar tabs" in Apple
                                    App Store's or Android Market's
                                    search to find the application.
Album: Slipknot
Artist: Slipknot

Contents:
1. (sic)- thezohan
2. Eyeless- thezohan
3. Wait and Bleed- thezohan
4. Surfacing- rongold360
5. Spit It Out- thezohan
6. Tattered and Torn- thezohan
7. Purity- thezohan
8. Me Inside- thezohan
9. Liberate- thezohan
10. Prosthetics- thezohan
11. No Life- thezohan
12. Diluted- thezohan
13. Only One- thezohan
14. Scissors- thezohan
15. Eeyore- thezohan
16. Get This- rongold360

Enjoy! I did all these tabs except for Surfacing. 
If you want me to put one of the songs in a seperate tab just leave it
in the comments.

724617000027-No Guitar
-------------------------------------------------------------------------------
			     (sic) - Slipknot
-------------------------------------------------------------------------------

Tuning: Drop B (B,F#,B,E,G#,C#)

Intro 1    X2
C#|-----------------------------------------------------------------|
G#|-----------------------------------------------------------------|
E |-----------------------------------------------------------------|
B |-----------------------------------------------------------------|
F#|-0-0--0-0-0--0-0-0--0-0-0-1----0-0--0-0-0--0-0-0--0-0-0-1--------|
B |-0-0--0-0-0--0-0-0--0-0-0-1----0-0--0-0-0--0-0-0--0-0-0-1--------|
    X    X X    X X    X X X      X    X X    X X    X X X
 
Intro 2   X4
C#|----------------------------------------------|
G#|----------------------------------------------|
E |----------------------------------------------|
B |----------------------------------------------|
F#|-0-0--0-0-1-0--0-0-1-0--0-0-1-0-0-0-1---------|
B |-0-0--0-0-1-0--0-0-1-0--0-0-1-0-0-0-1---------|
    X    X X X    X X X    X X X X X X 

Intro 3   X1
C#|---------------------------------------------------------------------------|
G#|---------------------------------------------------------------------------|
E |---------------------------------------------------------------------------|
B |---------------------------------------------------------------------------|
F#|-3-2-0-0-0-0-0-0-3-2-0-0-0-0-0-0-3-2-0-0-0-0-0-0-3-2-0-0-0-0-0-0-3-2-------|
B |-3-2-0-0-0-0-0-0-3-2-0-0-0-0-0-0-3-2-0-0-0-0-0-0-3-2-0-0-0-0-0-0-3-2-------|
        X X   X X X     X X   X X X     X X   X X X     X X   X X X
 
Verse Riff A
C#|--------------------------------------------------------------|
G#|--------------------------------------------------------------|
E |--------------------------------------------------------------|
B |--------------------------------------------------------------|
F#|--------------------------------------------------------------|
B |-1-0-0-1-0-1-0-1-0-0-4-3-0-6---1-0-0-1-0-1-0-1-0-0-4-3-0-6----|

Verse Riff B
C#|-----------------------------------------------------------------|
G#|-----------------------------------------------------------------|
E |-----------------------------------------------------------------|
B |-----------------------------------------------------------------|
F#|-1-0-0-1-0--1-0--1-0-0-4-3-0-6---1-0-0-1-0--1-0--1-0-0-4-3-0-6---|
B |-1-0-0-1-0--1-0--1-0-0-4-3-0-6---1-0-0-1-0--1-0--1-0-0-4-3-0-6---|

 Chorus  (Gtr 2 does the same thing on the low B string)
C#|----------------------------------------------------------------------------------|
G#|----------------------------------------------------------------------------------|
E |----------------------------------------------------------------------------------|
B |-5555-2222-4444-1111-5555-2222-4444-1111-5555-2222-4444-1111-5555-2222-4444-1111--|
F#|----------------------------------------------------------------------------------|
B |----------------------------------------------------------------------------------|

Bridge 1
C#|---------------------------------------------------|
G#|---------------------------------------------------|
E |-7------8------------10-----7-----8------------10--|
B |---------------------------------------------------|
F#|-5------6------------6------5-----6------------6---|
B |----6~-----7~--0---------------6~------7~--0-------|


 Solo (sort of a solo) W/ wah pedal   X2
C#|---------------------------------------------------|
G#|---------------------------------------------------|
E |-8-8--------------------8-8------------------------|
B |-8-8-6-5-6~-6--6-8-6----8-8-6-5-6~-6--6-8----------|
F#|-6-6-6-5-6~-6--6-8-6----6-6-6-5-6~-6--6-8----------|
B |-----6-5-6~-6--6-8-6--------6-5-6~-6--6-8----------|
 Bridge 2
C#|-------------------------------------------|
G#|-------------------------------------------|
E |-------------------------------------------|
B |---------------1h2----------------1h2------|
F#|-0--0--0--0--0-1h2--0--0--0--0--0-1h2------|
B |-0--0--0--0--0—1h2--0--0--0--0--0-1h2------|
    X  X  X  X  X      X  X  X  X  X
Bridge 3
C#|------------------------------------------------|
G#|------------------------------------------------|
E |------------------------------------------------|
B |----------3--------------------3----------------|
F#|-0--3--2--1-0-0-3p2---0--3--2--1-0-0-3p2--------|
B |-0--3--2----0-0-3p2---0--3--2----0-0-3p2--------|
               X X                  X X

 Outro 1
C#|--------------------------------------------------------------------|
G#|--------------------------------------------------------------------|
E |--------------------------------------------------------------------|
B |--------------------------------------------------------------------|
F#|--------------------------------------------------------------------|
B |-5-2-1-2-1-0-5-2-1-2-1-0-5-2-1-0--5-2-1-2-1-0-5-2-1-2-1-0-5-2-1-0---|

 Outro 2  (the last like 15 seconds of the song) w/ wah pedal
C#|------------------------------------------------------------------|
G#|------------------------------------------------------------------|
E |------------------------------------------------------------------|
B |------------------------------------------------------------------|
F#|------------------------------------------------------------------|
B |-0~---3~----2~----1~----5~----0~----3~-----2~-----1~-------5~-----|


| /  slide up
| \  slide down
| h  hammer-on
| p  pull-off
| ~  vibrato
| +  harmonic
| x  Mute note
===============================================================================

-------------------------------------------------------------------------------
     Eyeless - Slipknot
-------------------------------------------------------------------------------
Tabbed by:thezohan
Email:

Tuning: Drop B (B,F#,B,E,G#,C#)

 Intro *Lead Gtr*
C#|-12-12-12--12---12-12-12-12-12-12-12-12-12-12-------|
G#|---------16--16-16-16-16-16-16-16-16-16-16-16-------|
E |----------------------------------------------------|
B |----------------------------------------------------|
F#|----------------------------------------------------|
B |----------------------------------------------------|
 Intro 1 *Rhythm Gtr*
C#|---------------------------------------------------------------------------|
G#|---------------------------------------------------------------------------|
E |---------------------------------------------------------------------------|
B |------------------0-0--------------------0-0-------------------------------|
F#|---------2---1----0-0------------2---1---0-0-------------------------------|
B |-0-0-0-3---3---2--0-0---0-0-0-3----3---2-0-0-------------------------------|
    X X X X          X X   X X X            X X  
 Intro 2 *Rhythm Gtr*
C#|-----------------------------------------------|
G#|-----------------------------------------------|
E |-----------------------------------------------|
B |---------------------------------1-------------|
F#|----------2---1----------2-----1---------------|
B |-0-0-0-3----3---2--0-0-3---0-0-----------------|
    X X X X           X X       
 Chorus    (intro 3 also)
C#|--------------------------------------------------------------------|
G#|--------------------------------------------------------------------|
E |--------------------------------------------------------------------|
B |--------------------------------------------------------------------|
F#|-0-0-2-0-3-0-2-3-0-0-5-6-0-0-6-8--0-0-2-0-3-0-2-3-0-0-5-6-0-0-6-8---|
B |-0-0-2-0-3-0-2-3-0-0-5-6-0-0-6-8--0-0-2-0-3-0-2-3-0-0-5-6-0-0-6-8---|

 Verse
C#|----------------------------------------------------------------------|
G#|----------------------------------------------------------------------|
E |----------------------------------------------------------------------|
B |----------------------------------------------------------------------|
F#|-0-0-2-0-3-0-2-3--0-0-2-0-3-0-2-3--0-0-2-0-3-0-2-3--0-0-2-0-3-0-2-3---|
B |-0-0-2-0-3-0-2-3--0-0-2-0-3-0-2-3--0-0-2-0-3-0-2-3--0-0-2-0-3-0-2-3---|

 Bridge 1
C#|--------------------------------------------------------------|
G#|--------------------------------------------------------------|
E |--------------------------------------------------------------|
B |-3-3-3--3-3-3---3-3-3--3-3-3---3-3-3--3-3-3---3-3-3--3-3-3----|
F#|-2-2-2--2-2-2---2-2-2--2-2-2---2-2-2--2-2-2---2-2-2--2-2-2----|
B |--------------3--------------3--------------3--------------3--|

 Bridge 2
C#|--------------------------------------------------------|
G#|--------------------------------------------------------|
E |--------------------------------------------------------|
B |--------------------------------------------------------|
F#|-------------0-0-1--0-0-1--------------0-0-1--0-0-1-----|
B |-0-0-0—3b6~--0-0-1--0-0-1--0-0-0—3b6~--0-0-1--0-0-1-----|


Bridge 3 *Gtr 1*
C#|-12-12-12----12----12-12-12-12-12-12-12-12-12-12------|
G#|----------16----16-16-16-16-16-16-16-16-16-16-16------|
E |------------------------------------------------------|
B |------------------------------------------------------|
F#|------------------------------------------------------|
B |------------------------------------------------------|
 
 Bridge 3 *Gtr 2* Part 1
C#|----------------------------------------------------------|
G#|----------------------------------------------------------|
E |----------------------------------------------------------|
B |----------------------------------------------------------|
F#|----------------------------------------------------------|
B |-0--4--1-2~---0--4--1-2~---0--4--1-2~---0--4--1-2~--------|

 Bridge 3 *Gtr 2* Part 2   Note: Those are 1’s not 11’s and 2’s not 22’s
C#|---------------------------------------------------------------------------|
G#|---------------------------------------------------------------------------|
E |---------------------------------------------------------------------------|
B |---------------------------------------------------------------------------|
F#|-00000000-44444444-1111-222222222222-00000000-44444444-1111-222222222222---|
B |-00000000-44444444-1111-222222222222-00000000-44444444-1111-222222222222---|
    XXXXXXXX XXXXXXXX XXXX XXXXXXXXXXXX XXXXXXXX XXXXXXXX XXXX XXXXXXXXXXXX
 Outro     Note: Same as Bridge 2 Except Slower
C#|---------------------------------------------------------------------------|
G#|---------------------------------------------------------------------------|
E |---------------------------------------------------------------------------|
B |---------------------------------------------------------------------------|
F#|---------------0-0-1--0-0-1-----------------0-0-1--0-0-1-------------------|
B |-0-0-0-3b6~~~~-0-0-1--0-0-1--0-0-0-3b6~~~~--0-0-1--0-0-1-------------------|

| /  slide up
| \  slide down
| h  hammer-on
| p  pull-off
| ~  vibrato
| +  harmonic
| x  Mute note
===============================================================================

-------------------------------------------------------------------------------
			     Wait and Bleed - Slipknot
-------------------------------------------------------------------------------
Tabbed by:thezohan
Email:

Tuning:Drop B(B,F#,B,E,G#,C#)


Intro/Chorus  *Rhythm Gtr*
C#|---------------------------------------------------------------|
G#|---------------------------------------------------------------|
E |---------------------------------------------------------------|
B |---7------7------1------8---8------7------7------1------1---1--|
F#|--------0---0---------------------------0---0---------1---1----|
B |-0---0---------1---1--8---8------0---0---------1----1----------|

Chorus/Intro  *Lead Gtr* W/ wah pedal
C#|---------------------------------------------------------------------------|
G#|---------------------------------------------------------------------------|
E |-14-14-14-14-14-14-14-14--15-15-15-15-15-15-15-15--------------------------|
B |---------------------------------------------------------------------------|
F#|-12-12-12-12-12-12-12-12--13-13-13-13-13-13-13-13--------------------------|
B |---------------------------------------------------------------------------|

Chorus Alternative (at some point he does this instead)  W/ wah
C#|----------------------------------------------------------------------|
G#|----------------------------------------------------------------------|
E |-7-7-7-7-7-7-7-7--8-8-8-8-8-8-8-8--7-7-7-7-7-7-7-7--8-8-8-8-8-8-8-8---|
B |----------------------------------------------------------------------|
F#|-5-5-5-5-5-5-5-5--6-6-6-6-6-6-6-6--5-5-5-5-5-5-5-5--6-6-6-6-6-6-6-6---|
B |----------------------------------------------------------------------|

Pre-Verse   X1
C#|-----------------------------------------------------------------------------|
G#|-----------------------------------------------------------------------------|
E |-----------------------------------------------------------------------------|
B |-----------------------------------------------------------------------------|
F#|-1-1-0---1-1-0-----5--1-1-0--1-1-0-----5--1-1-0--1-1-0-----5--1-1-0--1-1-0---|
B |-1-1-0---1-1-0--/6----1-1-0--1-1-0--/6----1-1-0--1-1-0--/6----1-1-0--1-1-0---|

Verse
C#|--------------------------------------------------------------------------|
G#|--------------------------------------------------------------------------|
E |--------------------------------------------------------------------------|
B |-000-000----------000-000----------000-000----------000-000---------------|
F#|-000-000----------000-000----------000-000----------000-000---------------|
B |-000-000--1-4-1---000-000--1-4-1---000-000--1-4-1---000-000--1-4-1--------|
             X X X            X X X            X X X            X X X

Bridge 1   X2
C#|--------------------------------------------------------|
G#|--------------------------------------------------------|
E |--------------------------------------------------------|
B |--------------------------------------------------------|
F#|--------12-------------------------12-------------------|
B |-13-15~----13-12-12h13h12---13-15~-----13-12-12h13h12---|

Bridge 2
C#|--------------------------------------|
G#|--------------------------------------|
E |--------------------------------------|
B |-----2----------------2---------------|
F#|-0-3-0-1-0-0h1h0--0-3-0-1-0-0h1h0-----|
B |-0-3---1-0-0h1h0--0-3---1-0-0h1h0-----|
    X     X X        X     X X
Outro 
C#|------------------------------------------|
G#|------------------------------------------|
E |------------------------------------------|
B |-000-000-1-4-1--000-000-1-4-1-------------|
F#|-000-000-1-4-1--000-000-1-4-1-------------|
B |-000-000-1-4-1--000-000-1-4-1-------------|


| /  slide up
| \  slide down
| h  hammer-on
| p  pull-off
| ~  vibrato
| +  harmonic
| x  Mute note
===============================================================================


/Surfacing/
/Slipknot/

/tabbed by Rongold360/

/To the best of my abilities./

/Drop B: Drop D tuning, then down 1 1/2 steps. So B,F#,B,E,G#,C#/

/Please comment and rate, and I ask you to point out the mistakes./

/Guitar 1 is Mick Thomson/
/Guitar 2 is James Root/

 Gtr. 1 (elec. w/dist., *pitch shifter, delay, and reverb.)

[full With picking hand.][Then Tremolo][*Pitch shifter set to generate pitches 1 and 2 
higher than original note. Original note is mixed out.]

INTRO

Riff A
/---------------------------------------------------------------/
/---------------------------------------------------------------/
/--17b-----0-3-0-3-0-3-0-3--------------------------------------/
/---------------------------------------------------------------/
/---------------------------------------------------------------/
/---------------------------------------------------------------/

Riff A, fig. B
 Gtr. 2
/---------------------------------------------------------------/
/---------------------------------------------------------------/
/---------------------------------------------------------------/
/---------------------------------------------------------------/
/----0-1p0--0-1-------------------------------------------------/
/----0-1p0--0-1-------------------------------------------------/

 Gtr. 1
 Riff A                         Riff B
[All effects off except dist.] [Same effects on]
                               [Full bend]
/--------------------------[----------------------]-------------/
/--------------------------[----------------------]-------------/
/--------------------------[----17b---------------]-------------/
/--------------------------[----------------------]-------------/
/--0--1p0--1---------------[----------------------]-------------/
/--0--1p0--1---------------[----------------------]-------------/

Gtr. 2
[*apply palm mute 8th-16th times.]           [Half bend]
/----------------------------------[-------------------------]--/
/----------------------------------[-------------------------]--/
/----------------------------------[---7--8\7--7-7b----------]--/
/----------------------------------[---X--X\---X-Xb----------]--/
/---0--1p0---1---------------------[---5--6\5--5-5b----------]--/
/---0--1p0---1---------------------[-------------------------]--/

VERSES [It just says keep repeating. Listen to figure it out, sorry!]

 [Half bend]
/---------------------------------------------------------------/
/---------------------------------------------------------------/
/----7--8\7--7-7b-----------------------------------------------/
/----X--X\---X-Xb-----------------------------------------------/
/----5--5\5--5-5b-----------------------------------------------/
/---------------------------------------------------------------/

Chorus [Again, keep repeating, listen for number of times.]

Gtr. 1 (all effects off exc. dist.) and 2
/---------------------------------------------------------------/
/---------------------------------------------------------------/
/---------------------------------------------------------------/
/---------------------------------------------------------------/
/---0--1p0---1--------------------------------------------------/
/---0--1p0---1--------------------------------------------------/

CHORUS TAG

/---------------------------------------------------------------/
/---------------------------------------------------------------/
/---------------------------------------------------------------/
/---------------------------------------------------------------/
/---0--1p0--1---------------------------------------------------/
/---0--1p0--1---------------------------------------------------/

INTERLUDE

Gtr. 1                                                      [Cont.]
/----------------------\--------------------\-------------------/
/----------------------\--------------------\-------------------/
/----------------------\--------------------\-------------------/
/----------------------\--------------------\---------9-8-------/
/----------7-6---------\------5-4-----------\--8-7-6--7-6-8-7-6-/
/---8-7-6-------8-7-6--\-5-4-------5-4-3-2--\--8-7-6------8-7-6-/

Gtr. 2
                       [Repeat as necessary]
/----------------------\--------------------\-------------------/
/----------------------\---16---------------\-------------------/
/----------------------\----X---------------\-------------------/
/----------------------\---14---------------\---------9-8-------/
/----------------------\--------------------\--8-7-6--7-6-8-7-6-/
/----------------------\--------------------\--8-7-6------8-7-6-/

Gtr. 1 and 2(On guitar 2, apply palm mute 5th-8th time) Cont.
/---------------------------------------------------------------/
/---------------------------------------------------------------/
/---------------------------------------------------------------/
/--------7-6----------------------------------------------------/
/---5-4--5-4--5-4-3-2-------------------------------------------/
/---5-4-------5-4-3-2-------------------------------------------/

Riff C at 1:29

 [Start in bend, then release.]
/---------------------------------------------------------------/
/---------------------------------------------------------------/
/--17b----------------------------------------------------------/
/---------------------------------------------------------------/
/---------------------------------------------------------------/
/---------------------------------------------------------------/

2:20

Gtr. 1 and 2
/---------------------------------------------------------------/
/---------------------------------------------------------------/
/---------------------------------------------------------------/
/---------10--9-------------------------------------------------/
/---3-2----8--7--9-8-3-2----------------------------------------/
/---3-2----------9-8-3-2----------------------------------------/

2:47
Gtr. 1  [Full bend]
/---------------------------------------------------------------/
/---------------------------------------------------------------/
/------17b------------------------------------------------------/
/---------------------------------------------------------------/
/---------------------------------------------------------------/
/---------------------------------------------------------------/

Gtr. 2                         [Full bend]
/--------------------/------------------------------------------/
/--------------------/------------------------------------------/
/--------------------/------------------------------------------/
/--------------------/------------------------------------------/
/--------------------/------------------------------------------/
/---0--0--1p0--0--1--/--0--0--1p0--0--1b------------------------/

OUTRO CHORUS

Gtr. 1 and 2         Repeat as necessarie.
/---------------------------------------------------------------/
/---------------------------------------------------------------/
/---------------------------------------------------------------/
/---------------------------------------------------------------/
/---0--1p0--0--1------------------------------------------------/
/---0--1p0--0--1------------------------------------------------/

Gtr. 1 and 2         Repeat as necessarie.
/---------------------------------------------------------------/
/---------------------------------------------------------------/
/---------------------------------------------------------------/
/---------------------------------------------------------------/
/---------------------------------------------------------------/
/---0--0--1p0---------------------------------------------------/

OUTRO

/---------------------------------------------------------------/
/---------------------------------------------------------------/
/---------------------------------------------------------------/
/---------------------------------------------------------------/
/---0--1p0--1---------------------------------------------------/
/---0--1p0--1---------------------------------------------------/

/This is it. Dont hate, appreciate. Stay (sic).

-------------------------------------------------------------------------------
			     Spit it Out - Slipknot
-------------------------------------------------------------------------------
Tabbed by:thezohan
Email:

Tuning:Drop B(B,F#,B,E,G#,C#)

 Intro  w/ flanger
C#|-------------------------------------------|
G#|-------------------------------------------|
E |-------------------------------------------|
B |-------------------------------------------|
F#|-------------------------------------------|
B |-1-0-/5-1-0-/5-1-0-1-0-/5-1-0-/5-1-0-------|
    
 Verse (very similar to intro) w/ flanger
C#|------------------------------------------------|
G#|------------------------------------------------|
E |------------------------------------------------|
B |------------------------------------------------|
F#|-1-0-/5--1-0-/5--1-0--1-0-/5--1-0-/5--1-0-------|
B |-1-0-/5--1-0-/5--1-0--1-0-/5--1-0-/5--1-0-------|
    X X     X X     X X  X X     X X     X X
 Chorus
C#|-------------------------------------------------------|
G#|-------------------------------------------------------|
E |-------------------------------------------------------|
B |-333—-22--2h3--3p1--111----333--22--2h3—-3p1--111------|
F#|-333--22--2h3--3p1--111----333--22--2h3—-3p1--111------|
B |-333--22--2h3—-3p1--111----333--22—-2h3—-3p1--111------|

 Verse 2 *Gtr 1*         w/ wah pedal
C#|---------------------------------------------------|
G#|---------------------------------------------------|
E |---------------------------------------------------|
B |---6---7~-----6---7~------6----7~-----6---7~-------|
F#|-5---5------5---5------5----5-------5---5----------|
B |---------------------------------------------------|

 Verse 2 *Gtr 2*     w/ Flanger  (this one is kind of hard to hear)
C#|-10~----11~----10~----11~----10~----11~-----10~----11~-------|
G#|-10~----11~----10~----11~----10~----11~-----10~----11~-------|
E |-10~----11~----10~----11~----10~----11~-----10~----11~-------|
B |-------------------------------------------------------------|
F#|-------------------------------------------------------------|
B |-------------------------------------------------------------|
Bridge  | X4 |             |X2|                      | X1 |
C#|------------------|---------------------------|------------------------------|
G#|------------------|---------------------------|------------------------------|
E |-7-7-8--7-7-8-8-7-|--14-14-15--14-14-15-15-14-|--19-19-20--19-19-20-20-19----|
B |------------------|---------------------------|------------------------------|
F#|-5-5-6--5-5-6-6-5-|--12-12-13--12-12-13-13-12-|--17-17-18--17-17-18-18-17----|
B |------------------|---------------------------|------------------------------|
Bridge Continued   | X1 |
C#|----------------------------------------------------|
G#|----------------------------------------------------|
E |-21-21-21-21-21-21-21-21-21-21-21-21-21-21-21-21----|
B |----------------------------------------------------|
F#|-19-19-19-19-19-19-19-19-19-19-19-19-19-19-19-19----|
B |----------------------------------------------------|
 
Bridge 2   “f*** me, I’m all outta enemies”
C#|---------------------------------------------|
G#|---------------------------------------------|
E |---------------------------------------------|
B |-333-11-33-3p1-000---333-11-33-3p1-000-------|
F#|-333-11-33-3p1-000---333-11-33-3p1-000-------|
B |-333-11-33-3p1-000---333-11-33-3p1-000-------|

The outro is the chorus but palm-muted

| /  slide up
| \  slide down
| h  hammer-on
| p  pull-off
| ~  vibrato
| +  harmonic
| x  Mute note
===============================================================================


-------------------------------------------------------------------------------
			     Tattered and Torn - Slipknot
-------------------------------------------------------------------------------
Tabbed by:thezohan
Email:

Tuning:Drop B(B,F#,B,E,G#,C#)

 Main Riff   Note: Set octave pedal one octave higher

C#|-18-17-18----------------18-17-18-------------------|
G#|----------19-20-19-20-19----------16-17-16-17-16----|
E |----------------------------------------------------|
B |----------------------------------------------------|
F#|----------------------------------------------------|
B |----------------------------------------------------|

Riff 2  *Still w/ octave pedal*

C#|-18/--14----18/--14----18/--14----18/--14-----|
G#|----------------------------------------------|
E |----------------------------------------------|
B |----------------------------------------------|
F#|----------------------------------------------|
B |----------------------------------------------|

Riff 3  *No octave pedal*   
C#|--------------------|
G#|--------------------|
E |--------------------|
B |-1p0-3p0---1p0-4----|
F#|-1p0-3p0---1p0-4----|
B |-1p0—3p0---1p0-4----|

Riff 4 *No octave pedal*
C#|------------------------------------------------------------------------|
G#|------------------------------------------------------------------------|
E |------------------------------------------------------------------------|
B |-0-0-0-0-1-0-0-0-3-0-0-0-1-0-4--0-0-0-0-1-0-0-0-3-0-0-0-1-0-4-----------|
F#|-0-0-0-0-1-0-0-0-3-0-0-0-1-0-4--0-0-0-0-1-0-0-0-3-0-0-0-1-0-4-----------|
B |-0-0-0-0-1-0-0-0-3-0-0-0-1-0-4--0-0-0-0-1-0-0-0-3-0-0-0-1-0-4-----------|

| /  slide up
| \  slide down
| h  hammer-on
| p  pull-off
| ~  vibrato
| +  harmonic
| x  Mute note
===============================================================================


--------------------------------------------------------------------------
			     Purity - Slipknot
-------------------------------------------------------------------------------
Tabbed by:thezohan
Email:

Tuning:Drop B(B,F#,B,E,G#,C#)
Nothing to say here except this and No Life were my
favorite songs off this album, too bad it got taken off.
I have to say, I liked every song on this album, and it had NO flaws.
By the way, this is the 9.0 live version I figured out.
 
 Intro 
C#|---------------------------------------------------------------|
G#|---------------------------------------------------------------|
E |---------------------------------------------------------------|
B |---------------------------------------------------------------|
F#|-0-3-0-1-0-0-1-0-0-3-0-1-0-0-1-0-0-3-0-1-0-0-1-0-0-3-0-1-------|
B |-0-3-0-1-0-0-1-0-0-3-0-1-0-0-1-0-0-3-0-1-0-0-1-0-0-3-0-1-3b6~--|
    X X X X X X X X X X X X X X X X X X X X X X X X X X X X
  
 Intro 2
C#|---------------------------------------------------------------------------|
G#|---------------------------------------------------------------------------|
E |---------------------------------------------------------------------------|
B |---------------------------------------------------------------------------|
F#|---------------------------------------------------------------------------|
B |-0-3-0-1-0-0-1-0-0-3-0-1-0-0-1-0-0-3-0-1-0-0-1-0-0-3-0-1-3b6---------------|

He uses feedback here but if you can't these two
 +NATURAL HARMONICS+ will sound pretty accurate.
C#|-----------|
G#|-----------|
E |-----------|
B |-17+~~~~---|
F#|-17+~~~~---|
B |-----------|
 
 Verse Riffs                      If you get bored bass does this
C#|-------------------------|-----------------------|
G#|-------------------------|-----------------------|
E |-------------------------|-----------------------|
B |-------------------------|-----------------------|
F#|-0-3-0-1-0-0-1-0---------|-1~~~---4--1~~~---4----|
B |-0-3-0-1-0-0-1-0-3b6~/---|-1~~~---6--1~~~---6----|
    X X X X X X X X

 Riff 1 
 Between some verses and stuff he just hits this open chord
C#|-----|
G#|-3---|
E |-2---|
B |-0---|
F#|-0---|
B |-0---|

 Riff 2 "Hands on my face overbearing, I can't get out!"
C#|---------------------------------------------------------------------|
G#|---------------------------------------------------------------------|
E |---------------------------------------------------------------------|
B |---------------------------------------------------------------------|
F#|---------0-0-------------0-0-------------0-0-------------0-0---------|
B |-0-3-0-1-0-0-1p0-0-3-0-1-0-0-1p0-0-3-0-1-0-0-1p0-0-3-0-1-0-0-1p0-----|
            X X             X X             X X             X X
 
 Riff 3 "You all stare but you'll never see something inside me"
C#|---------------------------------------------------------------------------|
G#|---------------------------------------------------------------------------|
E |---------------------------------------------------------------------------|
B |---------------------------------------------------------------------------|
F#|-4-4-0--0-0-------4-4-0--0-0-------4-4-0--0-0-------4-4-0--0-0-------------|
B |-4-4-0--0-0-7~-7\-4-4-0--0-0-7~-7\-4-4-0--0-0-7~-7\-4-4-0--0-0-7~-7\-------|
 Riff 4        *natural harmonic                  ************************
C#|-----------------------------------------------222333444555666777888999/----|
G#|----------------------------------------------------------------------------|
E |-8-8-8-8-8-8-8-8-8-8-8-8-8-8-8-8-8-8-8-8-8-8-8------------------------------|
B |-X-X-X-X-X-X-X-X-X-X-X-X-X-X-X-X-X-X-X-X-X-X-X------------------------------|
F#|-6-6-6-6-6-6-6-6-6-6-6-6-6-6-6-6-6-6-6-6-6-6-6------------------------------|
B |-0-0-0-0-0-0-0-0-0-0-0-0-0-0-0-0-0-0-0-0-0-0-0------------------------------|

     Riff 5                            Riff 6 (with the singing)
C#|---------------------------------|-------------------------------------|
G#|---------------------------------|-------------------------------------|
E |---------------------------------|-------------------------------------|
B |---------------------------------|-------------------------------------|
F#|---------------------------------|--1h4-0-0-1h4-0-0-1h4-0-0-1h4-0-0----|
B |-1h4-0-0-1h4-0-0-1h4-0-0-1h4-0-0-|--1h4-0-0-1h4-0-0-1h4-0-0-1h4-0-0----|
                                           X X     X X     X X     X X

 Enjoy!Please Comment/Rate!!!

| /  slide up
| \  slide down
| h  hammer-on
| p  pull-off
| ~  vibrato
| +  harmonic
| x  Mute note
===============================================================================

-------------------------------------------------------------------------------
			     Me Inside - Slipknot
-------------------------------------------------------------------------------
Tabbed by:thezohan
Email:

Tuning:Drop B (B,F#,B,E,G#,C#)

Intro *Lead Gtr*   w/ wah pedal      (Riff 1)
C#|---------------------------------------------------------------------------|
G#|---------------------------------------------------------------------------|
E |-777777777777777777777777777777777777777777777777777777777777777777777777--|
B |---------------------------------------------------------------------------|
F#|---------------------------------------------------------------------------|
B |---------------------------------------------------------------------------|

Intro *Rhythm Gtr*     (Riff 1)
C#|-----------------------------------------|
G#|-----------------------------------------|
E |-----------------------------------------|
B |-----------------------------------------|
F#|-1--1-0---1--1-0---1--1-0---1--1-0-------|
B |-1--1-0---1--1-0---1--1-0---1--1-0-------|
    X  X     X  X     X  X     X  X
Riff 2
C#|---------------------------------------------------|
G#|---------------------------------------------------|
E |---------------------------------------------------|
B |---------------------------------------------------|
F#|-------0-0-0-------0-0-0-------0-0-0-------0-0-0---|
B |-1p0-0-0-0-0-1p0-0-0-0-0-1p0-0-0-0-0-1p0-0-0-0-0---|

Riff 3 (the little solo)
C#|-20p15----16p15p13p12---13h16h13h15h13-/20---13h16h13-------------13h16h13h15h13-/20----|
G#|-------17---------------------------------------------16--------------------------------|
E |---------------------------------------------------------13b15~-------------------------|
B |----------------------------------------------------------------------------------------|
F#|----------------------------------------------------------------------------------------|
B |----------------------------------------------------------------------------------------|

Verse *Lead Gtr*    (Riff 4)
C#|-----16-------15----------17~--------|
G#|--------15-------14------------------|
E |-14-----------------13----15~--------|
B |-------------------------------------|
F#|-------------------------------------|
B |-------------------------------------|

Verse *Rhythm Gtr*   (Riff 4)
C#|-----------------------------------------------------------------|
G#|-----------------------------------------------------------------|
E |-----------------------------------------------------------------|
B |-----------------------------------------------------------------|
F#|-----------------------------------------------------------------|
B |-3-0-2-3-1-2-----3-0-2-3-1-2-----3-0-2-3-1-2-----3-0-2-3-1-2-----|

Riff 5
C#|----------------------------------------------------|
G#|----------------------------------------------------|
E |-------7-7-7-7-7-7-7-7---------7-7-7-7-7-7-7-7------|
B |----------------------------------------------------|
F#|-1--1--5-5-5-5-5-5-5-5---1--1--5-5-5-5-5-5-5-5------|
B |-1--1--------------------1--1-----------------------|

Chorus  (Riff 6)
C#|-------------------------------------------|
G#|-------------------------------------------|
E |-----------------------5-5-5-7-7-7-8-8-----|
B |-------------------------------------------|
F#|-0--0-6-5-3--5--1-0-0--3-3-3-5-5-5-6-6-----|
B |-0--0-6-5-3--5--1-0-0----------------------|

Riff 7
C#|----------------------------------------|
G#|----------------------------------------|
E |----------------------------------------|
B |----------------------------------------|
F#|-00—0-0---00-0-0---00-0-0---00-0-0------|
B |-00—0-0---00-0-0---00-0-0---00-0-0------|
    XX X X   XX X X   XX X X   XX X X

Riff 8
C#|---------------------------------------------------------------------------|
G#|---------------------------------------------------------------------------|
E |---------------------------------------------------------------------------|
B |---------------------------------------------------------------------------|
F#|---------------------------------------------------------------------------|
B |-0h1p0-0--0-0—-0h1p0-0--0-0—-0h1p0-0--0-0—-0h1p0-0--0-0--------------------|

Riff 9 *Lead Gtr*  w/ Wah pedal
C#|---------------------------------------------------------------------------|
G#|---------------------------------------------------------------------------|
E |-7777777777777777777777777777777777777777777777777777777777777777----------|
B |---------------------------------------------------------------------------|
F#|-5555555555555555555555555555555555555555555555555555555555555555----------|
B |---------------------------------------------------------------------------|

Riff 9 *Rhythm Gtr*
Same as Riff 7

| /  slide up
| \  slide down
| h  hammer-on
| p  pull-off
| ~  vibrato
| +  harmonic
| x  Mute note
===============================================================================


-------------------------------------------------------------------------------
			     Liberate - Slipknot
-------------------------------------------------------------------------------
Tabbed by:thezohan
Email:

Tuning: Drop B(B,F#,B,E,G#,C#)

Intro
C#|------------------------------------------|
G#|------------------------------------------|
E |------------------------------------------|
B |------------------------------------------|
F#|------------------------------------------|
B |-13-0-00-000-000-0-13-0-00-000-000-0------|

Chorus
C#|---------------------------------------------------------------------------|
G#|---------------------------------------------------------------------------|
E |---------------------------------------------------------------------------|
B |---------------------------------------------------------------------------|
F#|-1-0-00-000-000-0-1-0-00-000-000-0-1-0-00-000-000-0-1-0-00-000-000-0-------|
B |-1-0-00-000-000-0-1-0-00-000-000-0-1-0-00-000-000-0-1-0-00-000-000-0-------|

He does this small riff right before the verse. Listen for it.
C#|---------------|
G#|---------------|
E |---------------|
B |---------------|
F#|-----4-3-------|
B |-4-3-----4-5---|

Verse Pt. 1
C#|---------------------------------------------------------|
G#|---------------------------------------------------------|
E |---------------------------------------------------------|
B |---------------------------------------------------------|
F#|-1-0---0-1-0--5-4-----------1-0---0-1-0-0--0--0--0-------|
B |-1-0---0-1-0--5-4--5858585--1-0---0-1-0-0--0--0--0-------|
          X      X X                 X     X
Verse Pt. 2
C#|---------------------------------------------------------------------------|
G#|---------------------------------------------------------------------------|
E |---------------------------------------------------------------------------|
B |---------------------------------------------------------------------------|
F#|-1-0--0-0-0--0-1-0--5-4-----------1-0--0-0-0--0-1-0--5-4-------------------|
B |-1-0--0-0-0--0-1-0--5-4-5858585---1-0--0-0-0--0-1-0--5-4-5858585-----------|
                X      X X                       X      X X
Riff 1  (when he is SINGING “Liberate my madness”
C#|----------------------------------------|
G#|----------------------------------------|
E |----------------------------------------|
B |----------------------------------------|
F#|----------------------------------------|
B |-1-0-00-000-000-0-1-0-00-000-000-0------|

Riff 2     *Lead Gtr*
C#|------------------------------------------|
G#|------------------------------------------|
E |------------------------------------------|
B |------------------------------------------|
F#|-0-1--0-1--0-1--0-1--0-1--0-1--0-1--0-1---|
B |-0-1--0-1--0-1--0-1--0-1--0-1--0-1--0-1---|

Riff 2 *Rhythm Gtr*
C#|--------------------------------------------------|
G#|--------------------------------------------------|
E |-7-8---7-8---7-8---7-8---7-8---7-8---7-8---7-8----|
B |--------------------------------------------------|
F#|-5-6---5-6---5-6---5-6---5-6---5-6---5-6---5-6----|
B |--------------------------------------------------|

Riff 3  (basically, you just stretch from 8 to 10 slowly,
Then come back down)
C#|----------------------------------------------|
G#|----------------------------------------------|
E |----------------------------------------------|
B |-8bbbbbbb9bbbbbbb10rrrrrrr9rrrrrrr8-----------|
F#|----------------------------------------------|
B |----------------------------------------------|

Riff 4
C#|---------------------------------------------------------------------------|
G#|---------------------------------------------------------------------------|
E |---------------------------------------------------------------------------|
B |---------------------------------------------------------------------------|
F#|-2-2-2-1-1-1-1-1-0-0-0-1-1-1-1-2-2-2-1-1-1-1-1-0-0-0-1-1-1-1-1-------------|
B |-2-2-2-1-1-1-1-1-0-0-0-1-1-1-1-2-2-2-1-1-1-1-1-0-0-0-1-1-1-1-1-------------|

Riff 5 *natural harmonic
C#|------------------------------------------------|
G#|------5*---------------------5*-----------------|
E |---------5*---------------------5*--------------|
B |------------5*---------------------5*-----------|
F#|-2-1-------------0-1---2-1-------------0-1------|
B |-2-1-------------0-1---2-1-------------0-1------|

| /  slide up
| \  slide down
| h  hammer-on
| p  pull-off
| ~  vibrato
| +  harmonic
| x  Mute note
===============================================================================


-------------------------------------------------------------------------------
     Prosthetics - Slipknot
-------------------------------------------------------------------------------
Tabbed by:thezohan
Email:

Tuning:Drop B (B,F#,B,E,G#,C#)
This is one of Slipknot's most impressive songs. I sat down and figured this
song out and played with it for 30 minutes. I'm pretty sure it's right.

 Intro gtr. 1  (some sort of flanger effect)
C#|----------------------------------------------------------------|
G#|----------------------------------------------------------------|
E |----------------------------------------------------------------|
B |-8-7-7--7-6-6--6-7-7--0-6-6------8-7-7--7-6-6--6-7-7--0-6-6-----|
F#|----------------------------------------------------------------|
B |-8-7-7--7-6-6--6-7-7--0-6-6------8-7-7--7-6-6--6-7-7--0-6-6-----|

 Intro gtr. 2
C#|-17--17--17--17--17--17--17--17---18--18--18--18--18--18--18--18----|
G#|---15--15--15--15--15--15--15--15---14--14--14--14--14--14--14--14--|
E |--------------------------------------------------------------------|
B |--------------------------------------------------------------------|
F#|--------------------------------------------------------------------|
B |--------------------------------------------------------------------|

 intro 2 *all guitars*  
C#|----17~------18~------17~------18~-----------------|
G#|-15-15~---14-14~---15-15~---14-14~-----------------|
E |---------------------------------------------------|
B |---------------------------------------------------|
F#|---------------------------------------------------|
B |---------------------------------------------------|

Verse 1  Gtr. 1   *Flanger*
C#|--------------------------------------|
G#|--------------------------------------|
E |--------------------------------------|
B |-7~~-----8~~-------------8~~----------|
F#|-5~~-----4~~-----0~~-----4~~----------|
B |-----------------0~~------------------|

Verse 1  Gtr. 2
C#|-------------------------------------------------------------------------|
G#|-------------------------------------------------------------------------|
E |-------------------------------------------------------------------------|
B |-------------------------------------------------------------------------|
F#|-5-5-5-5-5-5-5-5-5-5-5-5-5-5-5-5-4-4-4-4-4-4-4-4-4-4-4-4-4-4-4-4---------|
B |-----------------------------------------------------------------0-0-0-0-|
    X X X X X X X X X X X X X X X X X X X X X X X X X X X X X X X X X X X X    

(Continued)
C#|----------------------------------------------------------|
G#|----------------------------------------------------------|
E |----------------------------------------------------------|
B |----------------------------------------------------------|
F#|-------------------------4-4-4-4-4-4-4-4-4-4-4-4-4-4-4-4--|
B |-0-0-0-0-0-0-0-0-0-0-0-0----------------------------------|
    X X X X X X X X X X X X X X X X X X X X X X X X X X X X 

 Bridge
C#|--------------------------------------------------|
G#|--------------------------------------------------|
E |--------------------------------------------------|
B |--------------------------------------------------|
F#|-0--00-1-0-0--00-1-0-1--00-1-0-0--00-1-0-0--------|
B |-0--00-1-0-0--00-1-0-1--00-1-0-0--00-1-0-0--------|
  Chorus *Rhythm Gtr.*
C#|--------------------------------------------------------|
G#|--------------------------------------------------------|
E |--------------------------------------------------------|
B |--------------------------------------------------------|
F#|-8-7--1-2-2h3-3-3-3-4-3-4--8-7--1-2-2h3-3-3-3-4-3-4-----|
B |-8-7--1-2-2h3-3-3-3-4-3-4--8-7--1-2-2h3-3-3-3-4-3-4-----|

 Chorus *Lead Gtr.*
C#|----------------------------------|
G#|----------------------------------|
E |-15-14--8-9-9h10--10-10-10~-------|
B |----------------------------------|
F#|-13-12--6-7-7h8---8--8--8~~-------|
B |----------------------------------|

 Verse 2  *Lead Gtr*  w/wah pedal
C#|-17--17--17--17--17--17--17--17--18--18--18--18--18--18--18--18-----|
G#|---15--15--15--15--15--15--15--15--14--14--14--14--14--14--14--14---|
E |--------------------------------------------------------------------|
B |--------------------------------------------------------------------|
F#|--------------------------------------------------------------------|
B |--------------------------------------------------------------------|

 Verse 2 *Rhythm Gtr* w/ Flanger
C#|---------------------------------------------------------------------------|
G#|---------------------------------------------------------------------------|
E |---------------------------------------------------------------------------|
B |-7-777-7-7-777-7--8-888-8-8-888-8--7-777-7-7-777-7-8-888-8-8-888-8---------|
F#|-5-555-5-5-555-5--4-444-4-4-444-4--5-555-5-5-555-5-4-444-4-4-444-4---------|
B |---------------------------------------------------------------------------|

 Bridge 2      (listen to the song for the timing)
C#|---------------------------------------------------------|
G#|--------14b18---------13b17--------14b18---------13b17---|
E |-11b13--------10b12----------11b13--------10b12----------|
B |---------------------------------------------------------|
F#|---------------------------------------------------------|
B |---------------------------------------------------------|

 Bridge 3 *Lead Gtr*
C#|---------------------------------------------------------------------------|
G#|-7878787878787878787878787878787878787878787878787878787878787878787878----|
E |---------------------------------------------------------------------------|
B |---------------------------------------------------------------------------|
F#|---------------------------------------------------------------------------|
B |---------------------------------------------------------------------------|
Bridge *Rhythm Gtr*
C#|---------------------------------------------------------------------------|
G#|---------------------------------------------------------------------------|
E |---------------------------------------------------------------------------|
B |---------------------------------------------------------------------------|
F#|-3-2-0-2-1-0-1-2-3-2-0-2-1-0-1-2-3-2-0-2-1-0-1-2-3-2-0-2-1-0-1-2-----------|
B |-3-2-0-2-1-0-1-2-3-2-0-2-1-0-1-2-3-2-0-2-1-0-1-2-3-2-0-2-1-0-1-2-----------|
Outro        (something like this it’s hard to tell)
C#|----------------------------------------|
G#|----------------------------------------|
E |----------------------------------------|
B |----------------------------------------|
F#|-6~--5~--6~--6~--7~--5~--6~-------------|
B |-6~--5~--6~--6~--7~--5~--6~-------------|

| /  slide up
| \  slide down
| h  hammer-on
| p  pull-off
| ~  vibrato
| +  harmonic
| x  Mute note
===============================================================================

-------------------------------------------------------------------------------
     No Life - Slipknot
-------------------------------------------------------------------------------


Tuning: Drop B (B,F#,B,E,G#,C#)
tabbed by:thezohan

 Intro (Don't know how many times)
C#|----------------------------------------------------------------|
G#|----------------------------------------------------------------|
E |----------------------------------------------------------------|
B |----------------------------------------------------------------|
F#|----------------------------------------------------------------|
B |-6~-0-6~-0-0h66p0-0-6~-0-6~-0-0h66p0-0--------------------------|
 Intro 2         x2    Note: *natural harmonic
              
              * * * *            * * * *           * * * *          * * * *         
C#|-------------------------------------------------------------------------|
G#|-------------------------------------------------------------------------|
E |-----------5-5-5--------------5-5-5-------------5-5-5------------5-5-5---|
B |-----------------5------------------5-----------------5----------------5-|
F#|-0h2-0-1-0----------0h2-0-1-0---------0h2-0-1-0---------0h2-0-1-0--------|
B |-0h2-0-1-0----------0h2-0-1-0---------0h2-0-1-0---------0h2-0-1-0--------|
 Verses (Don't know how many times)w/ wah pedal
C#|---------------------------------------------------------------------------|
G#|---------------------------------------------------------------------------|
E |---------------------------------------------------------------------------|
B |-2h1-1h2-2h3-3333---2h1-1-1h2-2h3-3-3--------------------------------------|
F#|---------------------------------------------------------------------------|
B |-2h1-1h2-2h3-3333---2h1-1—1h2-2h3-3-3--------------------------------------|
 Chorus x2

              * * * *            * * * *
C#|------------------------------------------------|
G#|------------------------------------------------|
E |-----------5------------------5-----------------|
B |-------------5-5----------------5-5-------------|
F#|-0h6-0-4-3-------5—-0h6-0-4-3-------5-----------|
B |-0h6-0-4-3----------0h6-0-4-3-------------------|
 
Bridge 1 pt. 1  x2
C#|-------------------------------------------------------------------|
G#|-------------------------------------------------------------------|
E |-------------------------------------------------------------------|
B |-------------------------------------------------------------------|
F#|-------0-0-0-------0-0-0-------0-0-0-------------------------------|
B |-0-1-0-0-0-0-0-1-0-0-0-0-0-1-0-0-0-0-0-1-0-4-4-4-------------------|
          X X X       X X X       X X X 

Bridge 1 pt. 2 x1  (gtr. 1)
C#|--------------------------------------------------------------|
G#|--------------------------------------------------------------|
E |--------------------------------------------------------------|
B |-7-7-7-7-7-7-5-5-5-5-5-5--------------------------------------|
F#|-------------------------1-1-1-1-1-1-2-2-2-0-0-0--------------|
B |--------------------------------------------------------------|
    X X X X X X X X X X X X X X X X X X X X X 
 
Bridge 1 pt. 2 x1  (gtr. 2)
C#|-------------------------------------------------------------|
G#|-------------------------------------------------------------|
E |-------------------------------------------------------------|
B |-------------------------------------------------------------|
F#|-------0-0-0-------0-0-0-------0-0-0-------2-2-2-------------|
B |-0-1-0-0-0-0-0-1-0-0-0-0-0-1-0-0-0-0-0-1-0-------------------|
          X X X       X X X       X X X

Bridge 2
C#|--------------------------------------------------------------|
G#|--------------------------------------------------------------|
E |--------------------------------------------------------------|
B |--------------------------------------------------------------|
F#|-2-1-000-0-3333-2--2-1-000-0-3333-2---------------------------|
B |-2-1-000-0-3333-2--2-1-000-0-3333-2---------------------------|
        XXX X             XXX X

Enjoy! Please Comment/Rate!

| /  slide up
| \  slide down
| h  hammer-on
| p  pull-off
| ~  vibrato
| +  harmonic
| x  Mute note
===============================================================================

-------------------------------------------------------------------------------
			     Diluted - Slipknot
-------------------------------------------------------------------------------
Tabbed by:thezohan
Email:

Tuning:Drop B (B,F#,B,E,G#,C#)

Intro                                          Last time do this
C#|-------------------------------------|--------------------------------------|
G#|-------------------------------------|--------------------------------------|
E |-------------------------------------|--------------------------------------|
B |-------------------------------------|--------------------------------------|
F#|-0h1-0h1-0h1-------0h1-0h1-0h1-------|----0h1-0h1-0h1-----------------------|
B |-0h1-0h1-0h1-1b3~--0h1-0h1-0h1-1b3~--|----0h1-0h1-0h1-/8~~~~~---------------|

Verse Pt. 1      ** X1 **
C#|---------------------------------------------------------------------------|
G#|---------------------------------------------------------------------------|
E |---------------------------------------------------------------------------|
B |---------------------------------------------------------------------------|
F#|---------------------------------------------------------------------------|
B |-1-1-1-1-1-1-1-1-1-1-1-1-1-0-0-0-1-1-1-1-1-1-1-1-1-1-1-1-1-0-0-0-1-1-1-1---|
    X X X X X X X X X X X X X X X X X X X X X X X X X X X X X X X X X X X X

Verse 1 Pt. 2   AND Verse 2
C#|---------------------------------------------------------------------------|
G#|---------------------------------------------------------------------------|
E |---------------------------------------------------------------------------|
B |---------------------------------------------------------------------------|
F#|-0h1-0h1-0h1-------0h1-0h1-0h1-------0h1-0h1-0h1-------0h1-0h1-0h1---------|
B |-0h1-0h1-0h1-1b3~--0h1-0h1-0h1-1b3~--0h1-0h1-0h1-1b3~--0h1-0h1-0h1-1b3~----|

Pre-Chorus
C#|---------------------------------------------------------------------------|
G#|---------------------------------------------------------------------------|
E |---------------------------------------------------------------------------|
B |---------------------------------------------------------------------------|
F#|---------------------------------------------------------------------------|
B |-8-8-8-8-8b9-8b9-8b9-8b9-8b10-8b10-8b10-8b10-8b11-8b11-8b11-8b11-----------|

Pre-Chorus DJ(I think the DJ does this, but it still sounds cool)#tremolo pick
C#|-15####------17##----15####----17##-------|
G#|------------------------------------------|
E |------------------------------------------|
B |------------------------------------------|
F#|------------------------------------------|
B |------------------------------------------|

Chorus
C#|----------------------------------------------|
G#|----------------------------------------------|
E |----------------------------------------------|
B |----------------------------------------------|
F#|-2--1--2-2--2--1--2-2--2--1--2-2--2--1--2-2---|
B |-2--1--2-2--2--1--2-2--2--1--2-2--2--1--2-2---|

Interlude 1
C#|-------------------------------|
G#|-------------------------------|
E |-------------------------------|
B |-------------------------------|
F#|-2--1--2-1-1--2--1--2-1-1------|
B |-2--1--2-1-1--2--1--2-1-1------|

Bridge solo    *natural harmonic
C#|----------------------------------------|
G#|----------------------------------------|
E |-5*-5*---5*----5*-5*-5*---5*-5*-5*------|
B |-5*-5*---5*----5*-5*-5*---5*-5*-5*------|
F#|----------------------------------------|
B |----------------------------------------|

| /  slide up
| \  slide down
| h  hammer-on
| p  pull-off
| ~  vibrato
| +  harmonic
| x  Mute note
===============================================================================


-------------------------------------------------------------------------------
			     Only One - Slipknot
-------------------------------------------------------------------------------
Tabbed by:thezohan
Email:

Tuning:Drop B (B, F#, B, E, G#, C#)

Awesome song! 
I will explain if there is weird 
timing and stuff. 
 
Intro(Lead Guitar)
C#|---17--17--17--17---------------------------------------------------------|
G#|-17--17--17--17-----------------------------------------------------------|
E |--------------------------------------------------------------------------|
B |--------------------------------------------------------------------------|
F#|--------------------------------------------------------------------------|
B |--------------------------------------------------------------------------|
 Intro (Rhythm Guitar)
C#|--------------------------------------------------------------------------|
G#|--------------------------------------------------------------------------|
E |--------------------------------------------------------------------------|
B |--------------------------------------------------------------------------|
F#|--1-1-1-1-----------------------------------------------------------------|
B |-3-3-3-3------------------------------------------------------------------|

Riff 1 Note: Each note is held for a weird amout of time.
Listen to song. ...Pain! Made to order!...
C#|--------------------------------------------------------------------------|
G#|--------------------------------------------------------------------------|
E |--------------------------------------------------------------------------|
B |---3-2-----3-----2--------------------------------------------------------|
F#|-0-1-0-3-2-1-2-1-0-1------------------------------------------------------|
B |-0-----3-2---2-1---1------------------------------------------------------|
During the rapping part at some point, do this
(right before ...I can't stand it, Planned it,...
         1st time                             2nd time
C#|-----------------------------|---------------------------------------------|
G#|-----------------------------|---------------------------------------------|
E |-----------------------------|---------------------------------------------|
B |------3----------------------|-------2-------------------------------------|
F#|-3-2--1--2-1-----------------|--2-1--0—-1~---------------------------------|
B |-3-2-----2-1-----------------|--2-1-----1~---------------------------------|
  
During Verse, DJ does this thing 
C#|-/21\-----------/21\---------/21\-------------/21\------------------------|
G#|--------------------------------------------------------------------------|
E |--------------------------------------------------------------------------|
B |--------------------------------------------------------------------------|
F#|--------------------------------------------------------------------------|
B |--------------------------------------------------------------------------|



 Repeat Riff 1

 Riff 2    x8
C#|------------------------------------------------------|
G#|------------------------------------------------------|
E |------------------------------------------------------|
B |------------------------------------------------------|
F#|-3-0-0-5-6----3-0-0-5-6----3-0-0-5-6----3-0-0-5-6-----|
B |-3-0-0-5-6----3-0-0-5-6----3-0-0-5-6----3-0-0-5-6-----|
    x x x        X X X        X X X        X X X

 Weird timing riff. I think 6/8 or something.
C#|-------------------------------------------------|
G#|-------------------------------------------------|
E |-------------------------------------------------|
B |-------------------------------------------------|
F#|-----5-3--------5-3--------5-3--1-2-1-2-3-2-1----|
B |-0-3-----3--0-3-----3--0-3------1-2-1-2-3-2-1----|
      X     X    X     X    X      X X X X X X X                    

  Chorus (Only one of us walks away)
C#|------------------------------------|
G#|------------------------------------|
E |------------------------------------|
B |------------------------------------|
F#|-1-0-1-3-4-3-1-3--1-0-1-3-4-3-1-3---|
B |-1-0-1-3-4-3-1-3--1-0-1-3-4-3-1-3---|
      X X X   X X X    X X X   X X X

 Repeat weird timing riff

 Repeat Chorus

Enjoy! Please Comment/Rate

| /  slide up
| \  slide down
| h  hammer-on
| p  pull-off
| ~  vibrato
| +  harmonic
| x  Mute note
===============================================================================

-------------------------------------------------------------------------------
			     Scissors- Slipknot
-------------------------------------------------------------------------------
Tabbed by:thezohan
Email:

Tuning: Drop F# with C# tuning (F#-F#-B-E-G#-C#)
The tuning is weird. Let me explain. You tune to Drop B
Then tune the low E string down to a low F# so it is
A whole octave lower  than the A string.

Intro Gtr. 1 (trust me it’s right, listen very close) use wah pedal
C#|----------------------------------------------|
G#|----------------------------------------------|
E |----------------------------------------------|
B |-9-9--9-11--9-11--9-11--11-9------------------|
F#|-7-7--7-7---7-7---7-7---7--7------------------|
F#|-7-7--7-7---7-7---7-7---7--7------------------|

 Intro Gtr. 2      +natural harmonic
C#|-------------------------------------------|
G#|-------------------------------------------|
E |-------------------------------------------|
B |-------------------------------------------|
F#|---------------------------2-2-2-----------|
F#|-3-3-3-3-3-3-3-3-3-3-3-3-3-----------------|
    + + + + + + + + + + + + + + + + 

 Verse          Just palm mute the E string until you hear 2 cymbals crash
 It goes something like this. Note:Not the exact amount of palm mutes
C#|-------------------------------------------------------------------|
G#|-------------------------------------------------------------------|
E |-xxxxxxxxxxxxxxxxxxxxxx4xxxxxxxxxxxxxxxxxxxxxxxxxxxx4xxxx4xxxxxxxxx|
B |-------------------------------------------------------------------|
F#|-------------------------------------------------------------------|
F#|-------------------------------------------------------------------|
  At End of verse Go:
C#|-------------------------0-0-0-0----|
G#|-0-0-0-0-0-0-0-0-0-0-0-0-0-0-0-0----|
E |------------------------------------|
B |------------------------------------|
F#|------------------------------------|
F#|------------------------------------|

 Riff 1
C#|--------------------------------------|
G#|--------------------------------------|
E |--------------------------------------|
B |--------------------------------------|
F#|-0-1--0~--0-1--0~--0-1--0~--0-1--0~---|
F#|-0-1--0~--0-1--0~--0-1--0~--0-1--0~---|
 
 Riff 2   W/ wah pedal  x4
C#|-------------------------------------------------------------------------|
G#|-------------------------12-12-12-12-------------------------12-12-12-12-|
E |-14b16-14b16-14b16-14b16-------------14b15-14b15-14b15-14b15-------------|
B |-------------------------------------------------------------------------|
F#|-------------------------------------------------------------------------|
F#|-------------------------------------------------------------------------|

 Riff 3
C#|-------------------------------|
G#|-------------------------------|
E |-------------------------------|
B |-------------------------------|
F#|-0-3-2-0-3-2-0-5--0-5--0-1-----|
F#|-0-3-2-0-3-2-0-5--0-5--0-1-----|
    X X X X X X X    X    X

 Riff 4
C#|-----------------------------------------------------------|
G#|-----------------------------------------------------------|
E |-----------------------------------------------------------|
B |-----------------------------------------------------------|
F#|-111-1-1-1-----000-0-0-0-----111-1-1-1-----000-0-0-0-------|
F#|-111-1-1-1-----000-0-0-0-----111-1-1-1-----000-0-0-0-------|
    XXX X X X     XXX X X X     XXX X X X     XXX X X X
 
 
 Riff 5 "Biding my time until the time is right"
C#|--------------------------|
G#|--------------------------|
E |--------------------------|
B |--------------------------|
F#|-0-1--0-1--0-1--0-1--0-0--|
F#|-0-1--0-1--0-1--0-1--0-0--|

 Then Do: Riff 1

 O.K. Now we are at the feedback part. Guitar 1 just does some feedback 
 in the background, but Guitar 2 has some very distinct riffs that are
 not in the other Scissors tabs.

  Pt. 1

  Gtr. 1                                                Gtr. 2
C |---15~~~~~-----------------|---------------------------------|
G#|----------------------15~~-|-----------------------14~~~~~---|
E |---------------------------|---------------------------------|
B |---------------------------|---------------------------------|
F#|---------------------------|---------------------------------|
F#|---------------------------|---------------------------------|

 Pt. 2
C#---------22-22-22\20--------|
G#|-20b22---------------------|
E |---------------------------|
B |---------------------------|
F#|---------------------------|
F#|---------------------------|

  Pt. 3
C#|--------14-15-16-----------14-15-16-----|
G#|----------------------------------------|
E |-12b14-------------12b14----------------|
B |----------------------------------------|
F#|----------------------------------------|
F#|----------------------------------------|

  Pt. 4         tr-trill
C#|---------------------------------|
G#|---------------------------------|
E |-12tr14--12tr14--12tr15--12tr14--|
B |---------------------------------|
F#|---------------------------------|
F#|---------------------------------|

  Pt 5. Just solo really crazy!!

  After that, just hold this note and let it ring for a while
C#|--------------------------------------------------|
G#|--------------------------------------------------|
E |--------------------------------------------------|
B |--------------------------------------------------|
F#|-0~~~~~~~~~~~~~~~~~~~~~~~~~~~~~~~~~~~~~~~~~~~~~---|
F#|-0~~~~~~~~~~~~~~~~~~~~~~~~~~~~~~~~~~~~~~~~~~~~~---|

  Last Riff
C#|------------------------------------|
G#|------------------------------------|
E |------------------------------------|
B |------------------------------------|
F#|-0-1--0--0-1--0--0-1--0--0-1--0-----|
F#|-0-1--0--0-1--0--0-1--0--0-1--0-----|

Enjoy! Please Comment/Rate!!!

| /  slide up
| \  slide down
| h  hammer-on
| p  pull-off
| ~  vibrato
| +  harmonic
| x  Mute note
===============================================================================

-------------------------------------------------------------------------------
			     Eeyore  - Slipknot
-------------------------------------------------------------------------------
Tabbed by:thezohan
Email:

Tuning:Drop B(B,F#,B,E,G#,C#)

Intro  *Lead Gtr* I’m not so sure, so you can pick either riff   *natural harmonic
                            
C#|----------------------|--5*5*5*5*5*5*----5*5*5*5*5*5*--------------|
G#|----------------------|--5*5*5*5*5*5*----5*5*5*5*5*5*--------------|
E |-4444445-4444445------|--5*5*5*5*5*5*-5—-5*5*5*5*5*5*-5------------|
B |-0000003-0000003------|--5*5*5*5*5*5*-3—-5*5*5*5*5*5*-3------------|
F#|----------------------|--------------------------------------------|
B |----------------------|--------------------------------------------|

Intro *Rhythm Gtr*
C#|---------------------------------------------------------------------------|
G#|---------------------------------------------------------------------------|
E |---------------------------------------------------------------------------|
B |---------------------------------------------------------------------------|
F#|---------------------------------------------------------------------------|
B |-00000010----00000010----00000010----00000010------------------------------|

 Verse
C#|---------------------------------------------------------------------------|
G#|---------------------------------------------------------------------------|
E |---------------------------------------------------------------------------|
B |---------------------------------------------------------------------------|
F#|-7-7-7-7-7-7-7-7-3-3-3-3-2-2-2-2-7-7-7-7-7-7-7-7-3-3-3-3-2-2-2-2-----------|
B |-7-7-7-7-7-7-7-7-3-3-3-3-2-2-2-2-7-7-7-7-7-7-7-7-3-3-3-3-2-2-2-2-----------|
Small riff in between verse
C#|--------------------------------------------------------------------|
G#|--------------------------------------------------------------------|
E |--------------------------------------------------------------------|
B |--------------------------------------------------------------------|
F#|----------------------------------77777777777777773333333322222222--|
B |-77777777777777773333333322222222-----------------------------------|

C#|-----------------------------------------------------------------------|
G#|-----------------------------------------------------------------------|
E |-----------------------------------------------------------------------|
B |----------------------------------------------------------------4444---|
F#|------------------------------------------------------5555-3333--------|
B |-3p0-0-0-0-0-0-0-3p0-0-3p0-0-5-6-3p0-0-0-0-0-0-0-3333------------------|
        X X X X X X     X     X         X X X X X X

Last Riff
C#|---------------------------------------------|
G#|--------------------------------77777777-----|
E |-----------------------77777777-66666666-----|
B |-3p0--3p0-3p0-5h6-3p0--77777777-44444444-----|
F#|-3p0--3p0-3p0-5h6-3p0--55555555--------------|
B |-3p0—-3p0-3p0—5h6—3p0------------------------|

| /  slide up
| \  slide down
| h  hammer-on
| p  pull-off
| ~  vibrato
| +  harmonic
| x  Mute note
===============================================================================

/Get This/

/Slipknot/

/tabbed by rongold360/

/This is an easy song, in fact, I did the whole thing by ear./

/To the best of my abilities./

Gtr. 1: James Root (Heavy distortion)
Gtr. 2: Mick Thomson (Heavy distortion)

INTRO

Gtr. 2               [Gimme a scream Corey.]
/-----------------------------------------------------/
/-----------------------------------------------------/
/-----------------------------------------------------/
/-----------------------------------------------------/
/-----------------------------------------------0-----/
/---0-1-4-0-1-4-0-1-4-0-1-4-0-1-4-0-1-4-0-1-4-0-0-----/

VERSE

Gtr. 1 and 2
/-----------------------------------------------------/
/-----------------------------------------------------/
/-----------------------------------------------------/
/-----------------------------------------------------/
/---0-1-4-0-1-4-0-1-4-0-1-4-0-1-4-0-1-4-0-1-4-0-------/
/---0-1-4-0-1-4-0-1-4-0-1-4-0-1-4-0-1-4-0-1-4-0-------/

CHORUS

Gtr. 1 and 2
/-----------------------------------------------------/
/-----------------------------------------------------/
/-----------------------------------------------------/
/----------5------------------------------------------/
/---3-4-4--3--2-0-------------------------------------/
/---3-4-4-----2-0-------------------------------------/

OTHER RIFFS (Listen for when to play)

Gtr. 1 and 2
"Don't remind me 'Cause you can't stop me"
[Tremolo picking]
/-----------------------------------------------------/
/-----------------------------------------------------/
/-----------------------------------------------------/
/-----------------------------------------------------/
/-----------------------------------------------------/
/---0~-1~-4~-3~-4~-6~-8~-7~---------------------------/

Gtr. 1 and 2
"Hate Mutha F***a, hate mutha f***a, hate!"
/-----------------------------------------------------/
/-----------------------------------------------------/
/-----------------------------------------------------/
/-----------------------------------------------------/
/---0-0-0---------------------------------------------/
/---0-0-0---------------------------------------------/

Gtr. 1
/-----------------------------------------------------/
/-----------------------------------------------------/
/-----------------------------------------------------/
/------2h3p2h3--3h4p3h4-------------------------------/
/-----------------------------------------------------/
/---4b------------------------------------------------/

Gtr. 2
/-----------------------------------------------------/
/-----------------------------------------------------/
/-----------------------------------------------------/
/-----------------------------------------------------/
/------2h3p2h3--3h4p3h4-------------------------------/
/---4b------------------------------------------------/

BREAKDOWN

Gtr. 1 and 2 (Listen)
/-----------------------------------------------------/
/-----------------------------------------------------/
/-----------------------------------------------------/
/---0-0-0--0-0-0--0-0-0--0-0-0------------------------/
/---0-0-0--0-0-0--0-0-0--0-0-0------------------------/
/---0-0-0--0-0-0--0-0-0--0-0-0------------------------/

Gtr. 2 first, then Gtr. 1 comes in. (Listen to understand.)
/-----------------------------------------------------/
/-----------------------------------------------------/
/-----------------------------------------------------/
/-----------------------------------------------------/
/---0-1-4-0-1-4-0-1-4-0-1-4-0-1-4-0-1-4-0-1-4-0-1-4---/
/---0-1-4-0-1-4-0-1-4-0-1-4-0-1-4-0-1-4-0-1-4-0-1-4---/

OUTRO

[Tremolo picking]
/-----------------------------------------------------/
/-----------------------------------------------------/
/-----------------------------------------------------/
/-----------------------------------------------------/
/----------3~-----------------------------------------/
/---3~-4~~----2~-0~-----------------------------------/

/Told you it was easy. Comment and rate if you would, please./


Well, there it is. At some point, I'll tab the extra songs like Get This,
Despise, interloper, and Snap. Please Comment/Rate!
comments
print report bad tab
7 comments total. Showing first comments.
+1 reply
rongold360 wrote on May 27 2009, 06:15 pm

Stay (sic) Mutherfudger. Lol. I made a new insult. Do you know why Slipknot calls their fans maggots? They once saw a dead cow with maggots all over it and said IT LOOKS LIKE THE MOSH PIT!

0 reply
thezohan wrote on June 4 2009, 05:52 pm

rock on motherfudgers!!! I added your "Get this" tab, and put it at the contents, giving yiou credit of course(sorry for the spelling)

+1 reply
rongold360 wrote on July 25 2009, 02:12 pm

dude, just wanted to say agen, (sic)tabs... looking at it agen today...

I want to post or [tab]
guest
You may want to rate the tab now too:
select rating
Please do not post tabs as comments. Select "correction" instead!