Oops, an error
Loading. Please wait.

Snuff Tab

ver3
ver3

Whole song

Video

More versions @911Tabs.com
294,684 views 641 this week
37 commentsread comments
1 2 3 4 5
excellent!
x 67
Autoscroll
+/-
esc
set tempo
stop
Contributor
WARNING: You are trying to view
                                    content from Ultimate-Guitar.com
                                    in an unauthorized application,
                                    which is prohibited.

                                    Please use an official Ultimate
                                    Guitar Tabs application for iPhone,
                                    iPad or Android to access legitimate
                                    chords, guitar, bass, and drum tabs
                                    from Ultimate-Guitar.com database.

                                    Type "ultimate guitar tabs" in Apple
                                    App Store's or Android Market's
                                    search to find the application.
-------------------------------------------------------------------------------
                             "Snuff" --- Slipknot
-------------------------------------------------------------------------------


                              Tabbed by: [travis]



Tuning: Drop B Standard [C# F# B E G# C#] low to high
                        [Db Gb B E Ab Db] (in case you don't know #s)


Key: C Major (C D E F G A B) 


Legend:

... = palm mute
/ = slide up
\ = slide down
h = hammer on
p = pull off
~ = vibrato / ring 
h/ = pick once
p\ = pick once
/// = slowly slide up
\\\ = slowly slide down



============================================
Intro:
Verse 1:

Guitar 1:
C#|-0~~~------------------0~---0~~~--------------0~~--|
G#|-1~~~------------------1~---1~~~--------------1~~--|
E |-2~~~------------------0~---2~~~--------------0~~--|
B |-2~~~---2~--3~~~-------2~---2~~~--2~--3~~-----2~~--| x3
F#|-0~~~---2~--3~~~-------3~---0~~~--2~--3~~----------|
C |--------0~--1~~~----0-------------0~--1~~---0------|

Guitar 2:
C#|-----------------------------------------------------------------|
G#|-----------------------------------------------------------------|
E |-5---5---5---5---2---2---2---2---5---5---5---5---2---2---2---2---|
B |-7---7---7---7---3---3---3---3---7---7---7---7---3---3---3---3---| x3
F#|---7---7---7---7---3---3---3---3---7---7---7---7---3---3---3---3-|
C |-----------------------------------------------------------------|

End of Verse 1.
=============================================
Break 1:

Guitar 1:
C#|-0---0-0---0---0-0--0--0--0--1--1-1--1--1-1--1--1----0-0-0-|
G#|-1---1-1---1---1-1--1--0--0--1--1-1--1--1-1--1--1----1-1-1-|
E |-2---2-2---2---2-2--2--0--0--2--2-2--2--2-2--2--2--0-0-0-0-|
B |-2---2-2---2---2-2--2--2--2--3--3-3--3--3-3--3--3--0-2-2-2-|
F#|-0---0-0---0---0-0--0--2--2--3--3-3--3--3-3--3--3--0-3-3-3-|
C |-----------------------0--0--1--1-1--1--1-1--1--1----------|

Guitar 2:
C#|-----------------------------------------------------------------------|
G#|-----------------------------------------------------------------------|
E |-----------------------------------------------------------------------|
B |-10-------12-----14----14h/15~~~--14~~~---12h/14p\12h/14--12----10p\9--|
F#|-12-------14-----15----15h/17~~~--15~~~---14h/15p\14h/15--14----12p\10-|
C |-----------------------------------------------------------------------|

==============================================
Guitar 1:
C#|-0--0-0--0--0-0--0-0--0--0--0-0-0-0--1--1-1--1--1-1--1--1--1-1-1---|
G#|-1--1-1--1--1-1--1-1--1--1--0-0-0-0--1--1-1--1--1-1--1--1--1-1-1---|
E |-2--2-2--2--2-2--2-2--2--2--0-0-0-0--2--2-2--2--2-2--2--2--2-2-2-0-|
B |-2--2-2--2--2-2--2-2--2--2--2-2-2-2--3--3-3--3--3-3--3--3--3-3-3-0-|
F#|-0--0-0--0--0-0--0-0--0--0--2-2-2-2--3--3-3--3--3-3--3--3--3-3-3-0-|
C |----------------------------0-0-0-0--1--1-1--1--1-1--1--1--1-1-1---|

Guitar 2:
C#|----------------------------------------------------------------------------|
G#|----------------------------------------------------------------------------|
E |----------------------------------------------------------------------------|
B |-10-------12-----14-----15h/17---15p\14--14---12p\10h/12h/14--12------------|
F#|-12-------14-----15-----17h/19---17p\15--15---14p\12h/14h/15--14---12\10-10-|
C |----------------------------------------------------------------------------|

End of Break 1.
===============================================
Chorus 1:

Guitar 1:
C#|-3--3-3--3-3--3--3--3-3-3-3--0--0-0--0--0-0--0--0--0-0-0---|
G#|-3--3-3--3-3--3--3--3-3-3-3--1--1-1--1--1-1--1--1--1-1-1-0-|
E |-0--0-0--0-0--0--0--0-0-0-0--2--2-2--2--2-2--2--2--2-2-2-0-|
B |-0--0-0--0-0--0--0--0-0-0-0--2--2-2--2--2-2--2--2--2-2-2-0-| x3
F#|-2--2-2--2-2--2--2--2-2-2-2--0--0-0--0--0-0--0--0--0-0-0---|
C |-3--3-3--3-3--3--3--3-3-3-3--------------------------------|

Guitar 2:
C#|-------------------------------------------0~~~~~~~~|
G#|----------------------------------------------------|
E |----------------------------------------10----------|
B |-------------------------------------10-------------| x3
F#|-10--10--10--10--10--10--10--10---12----------------|
C |----------------------------------------------------|

================================================
Guitar 1:
C#|-3--3-3--3-3--3--3-3-3-3--1---1--1---1--1--1--1---|
G#|-3--3-3--3-3--3--3-3-3-3--1---1--1---1--1--1--1---|
E |-0--0-0--0-0--0--0-0-0-0--2---2--2---2--2--2--2-0-|
B |-0--0-0--0-0--0--0-0-0-0--3---3--3---3--3--3--3-0-|
F#|-2--2-2--2-2--2--2-2-2-2--3---3--3---3--3--3--3-0-|
C |-3--3-3--3-3--3--3-3-3-3--1---1--1---1--1--1--1---|

Guitar 2:
C#|-----------------------------------------0~~--------------0~~~------|
G#|---------------------------------------1----1-----------1-----1-----|
E |-------------------------------------2---------2------2---------2p0-|
B |--------------------------------\3-3----------------3---------------|
F#|-10--10--10--10--10--10--10--10-------------------------------------|
C |--------------------------------------------------------------------|

End of Chorus 1.
=================================================
Break 2:

Guitar 1:
C#|-0---0-0---0---0-0--0--0--0--1--1-1--1--1-1--1--1----0-0-0-|
G#|-1---1-1---1---1-1--1--0--0--1--1-1--1--1-1--1--1----1-1-1-|
E |-2---2-2---2---2-2--2--0--0--2--2-2--2--2-2--2--2--0-0-0-0-|
B |-2---2-2---2---2-2--2--2--2--3--3-3--3--3-3--3--3--0-2-2-2-|
F#|-0---0-0---0---0-0--0--2--2--3--3-3--3--3-3--3--3--0-3-3-3-|
C |-----------------------0--0--1--1-1--1--1-1--1--1----------|

Guitar 2:
C#|-0~-0-0-0-0-0-0-0-0-0-0-0-0-0-7h/12-12p\5-5-0-5-0-5-0-5-0-3-0-3-0---------------|
G#|-1~~~~~~~~~~~~~~~~~~~~~~~~~~~~~~----------------------------------5p\3h/5h/8p\5-|
E |-2~~~~~~~~~~~~~~~~~~~~~~~~~~~~~~------------------------------------------------|
B |-2~~~~~~~~~~~~~~~~~~~~~~~~~~~~~~------------------------------------------------|
F#|-0~~~~~~~~~~~~~~~~~~~~~~~~~~~~~~------------------------------------------------|
C |--------------------------------------------------------------------------------|

Guitar 3: use a tremelo effect pedal.
C#|-15p\12--12--12p\10-10p\8-8p\7-7p\5-5p\3--3--3h/5~~~~~~~~~~~~~~~~~|
G#|------------------------------------------------------------------|
E |------------------------------------------------------------------|
B |------------------------------------------------------------------|
F#|------------------------------------------------------------------|
C |------------------------------------------------------------------|

======================================================
Guitar 1:
C#|-0---0-0---0---0-0--0--0--0--1--1-1--1--1-1--1--1----0-0-0-|
G#|-1---1-1---1---1-1--1--0--0--1--1-1--1--1-1--1--1----1-1-1-|
E |-2---2-2---2---2-2--2--0--0--2--2-2--2--2-2--2--2--0-0-0-0-|
B |-2---2-2---2---2-2--2--2--2--3--3-3--3--3-3--3--3--0-2-2-2-|
F#|-0---0-0---0---0-0--0--2--2--3--3-3--3--3-3--3--3--0-3-3-3-|
C |-----------------------0--0--1--1-1--1--1-1--1--1----------|


Guitar 2:
C#|-0-0-0-0-0-0-0-0-0-0-7h/12-12p\5-5-0-5-0-5-0-5-0-3-0-3-0-------------------|
G#|---------------------------------------------------------5p\3h/5~~~~~~~~~~~|
E |---------------------------------------------------------------------------|
B |---------------------------------------------------------------------------|
F#|---------------------------------------------------------------------------|
C |---------------------------------------------------------------------------|

Guitar 3: use a tremelo effect pedal.
C#|-17p\15p\12-12p\10-10p\8-8p\7-7p\5-5h/7--7--13~~~~~~~|
G#|-----------------------------------------------------|
E |-----------------------------------------------------|
B |-----------------------------------------------------|
F#|-----------------------------------------------------|
C |-----------------------------------------------------|

End of Break 2.
=======================================================
Verse 2:

Guitar 1:
C#|-0---0-0---0---0-0--0--0--0--1--1-1--1--1-1--1--1----0-0-0-|
G#|-1---1-1---1---1-1--1--0--0--1--1-1--1--1-1--1--1----1-1-1-|
E |-2---2-2---2---2-2--2--0--0--2--2-2--2--2-2--2--2--0-0-0-0-|
B |-2---2-2---2---2-2--2--2--2--3--3-3--3--3-3--3--3--0-2-2-2-| x3
F#|-0---0-0---0---0-0--0--2--2--3--3-3--3--3-3--3--3--0-3-3-3-|
C |-----------------------0--0--1--1-1--1--1-1--1--1----------|

Guitar 2:
C#|---------------------------------------------------|
G#|-10~~~~~~~~~~~~~~----------------------------------|
E |--x--------------9~~~~~~~~~10~~~~~~~~~~~~~~~~~~~~~~|
B |--7~~~~~~~~~~~~~~x----------x----------------------| x3
F#|-----------------7~~~~~~~~~-8~~~~~~~~~~~~~~~~~~~~~~|
C |---------------------------------------------------|

=========================================================
Guitar 1:
C#|-0--0-0--0--0-0--0-0--0--0--0-0-0-0--1--1-1--1--1-1--1--1--1-1-1---|
G#|-1--1-1--1--1-1--1-1--1--1--0-0-0-0--1--1-1--1--1-1--1--1--1-1-1---|
E |-2--2-2--2--2-2--2-2--2--2--0-0-0-0--2--2-2--2--2-2--2--2--2-2-2-0-|
B |-2--2-2--2--2-2--2-2--2--2--2-2-2-2--3--3-3--3--3-3--3--3--3-3-3-0-|
F#|-0--0-0--0--0-0--0-0--0--0--2-2-2-2--3--3-3--3--3-3--3--3--3-3-3-0-|
C |----------------------------0-0-0-0--1--1-1--1--1-1--1--1--1-1-1---|

Guitar 2:
C#|---------------------------------------------------|
G#|-10~~~~~~~~~~~~~~----------------------------------|
E |--x--------------9~~~~~~~~~10~~~~~~~~~~~~~~~~~~~~~~|
B |--7~~~~~~~~~~~~~~x----------x----------------------| 
F#|-----------------7~~~~~~~~~-8~~~~~~~~~~~~~~~~~~~~~~|
C |---------------------------------------------------|

Guitar 3:
C#|---------------------------------------------------|
G#|---------------------------------------------------|
E |---------------------------------------------------|
B |---------------------------------------------------|
F#|---------------------------------------------------|
C |-------------------------------------------3h/15p\-|

End of Verse 2.
===========================================================
Chorus 2:

Guitar 1:
C#|-3--3-3--3-3--3--3--3-3-3-3--0--0-0--0--0-0--0--0--0-0-0---|
G#|-3--3-3--3-3--3--3--3-3-3-3--1--1-1--1--1-1--1--1--1-1-1-0-|
E |-0--0-0--0-0--0--0--0-0-0-0--2--2-2--2--2-2--2--2--2-2-2-0-|
B |-0--0-0--0-0--0--0--0-0-0-0--2--2-2--2--2-2--2--2--2-2-2-0-| x3
F#|-2--2-2--2-2--2--2--2-2-2-2--0--0-0--0--0-0--0--0--0-0-0---|
C |-3--3-3--3-3--3--3--3-3-3-3--------------------------------|

Guitar 2:
C#|-------------------------------------------0~~~~~~~~|
G#|----------------------------------------------------|
E |----------------------------------------10----------|
B |-------------------------------------10-------------| x3
F#|-10--10--10--10--10--10--10--10---12----------------|
C |----------------------------------------------------|

Guitar 3:
C#|----------------------------------------------------------------------------------------|
G#|-3~~~~~~--------------------------------------------------------------------------------|
E |-0~~~~~~-----------------------------------0~~~~~~--------------------------------------|
B |-0~~~~~~----5------------------------------0~~~~~~--5---------------------------------5-|
F#|-x----------5------------------------------x--------5---------------------------------5-|
C |-3~~~~~~------3h/5--5h/8p\5-5h/8p\5~~~~~~3-3~~~~~~-----/12--12h/15p\12--10h/12~~~~~~~---|

==========================================================
Guitar 3:
C#|-3~~~~~~~~---------------------------------|
G#|-3~~~~~~~~---------------------------------|
E |-0~~~~~~~~---------------------------------|
B |-0~~~~~~~~-------------------------------5-|
F#|-x-----------3p\0------------------------5-|
C |-3~~~~~~~~--------3h/5~~~~~~~~~~~~~~~~~~~--|

==========================================================
Guitar 1:
C#|-3--3-3--3-3--3--3-3-3-3--1---1--1---1--1--1--1---|
G#|-3--3-3--3-3--3--3-3-3-3--1---1--1---1--1--1--1---|
E |-0--0-0--0-0--0--0-0-0-0--2---2--2---2--2--2--2-0-|
B |-0--0-0--0-0--0--0-0-0-0--3---3--3---3--3--3--3-0-|
F#|-2--2-2--2-2--2--2-2-2-2--3---3--3---3--3--3--3-0-|
C |-3--3-3--3-3--3--3-3-3-3--1---1--1---1--1--1--1---|

Guitar 2:
C#|-----------------------------------------0~~--------------0~~~------|
G#|---------------------------------------1----1-----------1-----1-----|
E |-------------------------------------2---------2------2---------2p0-|
B |--------------------------------\3-3----------------3---------------|
F#|-10--10--10--10--10--10--10--10-------------------------------------|
C |--------------------------------------------------------------------|

Guitar 3:
C#|---------------------------------------------------|
G#|---------------------------------------------------|
E |---------------------------------------------------|
B |---------------------------------------------------|
F#|--------------------3-3-3-3-3-3-3-3-3-3-3-3-3-3--3-|
C |-3~~~~~~~~~~~~~~~~0-1-1-1-1-1-1-1-1-1-1-1-1-1-1--1-|
                         .........................

Guitar 4:
C#|---------------------------------------------------|
G#|---------------------------------------------------|
E |-----------------------------------------x---------|
B |-----------------------------------------x---------|
F#|---------------------------------------------------|
C |--------------------------------------------3h/15p\|

End of Chorus 2.
=============================================================
Break 2:

Guitar 1:
C#|-0---0-0---0---0-0--0--0--0--1--1-1--1--1-1--1--1----0-0-0-|
G#|-1---1-1---1---1-1--1--0--0--1--1-1--1--1-1--1--1----1-1-1-|
E |-2---2-2---2---2-2--2--0--0--2--2-2--2--2-2--2--2--0-0-0-0-|
B |-2---2-2---2---2-2--2--2--2--3--3-3--3--3-3--3--3--0-2-2-2-| 
F#|-0---0-0---0---0-0--0--2--2--3--3-3--3--3-3--3--3--0-3-3-3-|
C |-----------------------0--0--1--1-1--1--1-1--1--1----------|

Guitar 2: tremelo effect.
C#|-17p\15-12-12p\10-10p\8-8p\7-7p\5-5p\3--3--5~~~~~~~~~~~~~~|
G#|----------------------------------------------------------|
E |----------------------------------------------------------|
B |----------------------------------------------------------|
F#|----------------------------------------------------------|
C |----------------------------------------------------------|

Guitars 3 and 4:
C#|-------------------------------------------------------|
G#|-------------------------------------------------------|
E |----------------------------------------------------5~~|
B |-7---7--7-7-7-7--7---7----3--3-3--3--3-3-3-3--3-----5~~|
F#|-7---7--7-7-7-7--7---7-0--3--3-3--3--3-3-3-3--3--0--3~~|
C |-5---5--5-5-5-5--5---5-0--1--1-1--1--1-1-1-1--1--0-----|

======================================================
Guitar 1:
C#|-0---0-0---0---0-0--0--0--0--1--1-1--1--1-1--1--1----0-0-0-|
G#|-1---1-1---1---1-1--1--0--0--1--1-1--1--1-1--1--1----1-1-1-|
E |-2---2-2---2---2-2--2--0--0--2--2-2--2--2-2--2--2--0-0-0-0-|
B |-2---2-2---2---2-2--2--2--2--3--3-3--3--3-3--3--3--0-2-2-2-| 
F#|-0---0-0---0---0-0--0--2--2--3--3-3--3--3-3--3--3--0-3-3-3-|
C |-----------------------0--0--1--1-1--1--1-1--1--1----------|

Guitar 2: tremelo effect.
C#|-17p\15-12-12p\10-10p\8-8p\7-7p\5-5h/7--7--8~~~~~~~~~~~~~~~|
G#|-----------------------------------------------------------|
E |-----------------------------------------------------------|
B |-----------------------------------------------------------|
F#|-----------------------------------------------------------|
C |-----------------------------------------------------------|

Guitars 3 and 4:
C#|-------------------------------------------------------|
G#|-------------------------------------------------------|
E |----------------------------------------------------5~~|
B |-7---7--7-7-7-7--7---7----3--3-3--3--3-3-3-3--3-----5~~|
F#|-7---7--7-7-7-7--7---7-0--3--3-3--3--3-3-3-3--3--0--3~~|
C |-5---5--5-5-5-5--5---5-0--1--1-1--1--1-1-1-1--1--0-----|

========================================================
Guitar 1:
C#|-0---0-0---0---0-0--0--0--0--1--1-1--1--1-1--1--1----0-0-0-|
G#|-1---1-1---1---1-1--1--0--0--1--1-1--1--1-1--1--1----1-1-1-|
E |-2---2-2---2---2-2--2--0--0--2--2-2--2--2-2--2--2--0-0-0-0-|
B |-2---2-2---2---2-2--2--2--2--3--3-3--3--3-3--3--3--0-2-2-2-| 
F#|-0---0-0---0---0-0--0--2--2--3--3-3--3--3-3--3--3--0-3-3-3-|
C |-----------------------0--0--1--1-1--1--1-1--1--1----------|

Guitar 2: tremelo effect.
C#|-17p\15-12-12p\10-10p\8-8p\7-7p\5-5p\3--3~~~~~5~~~~~~~~~~~~|
G#|-----------------------------------------------------------|
E |-----------------------------------------------------------|
B |-----------------------------------------------------------|
F#|-----------------------------------------------------------|
C |-----------------------------------------------------------|

Guitars 3:
C#|-------------------------------------------------------|
G#|-------------------------------------------------------|
E |----------------------------------------------------5~~|
B |-7---7--7-7-7-7--7---7----3--3-3--3--3-3-3-3--3-----5~~|
F#|-7---7--7-7-7-7--7---7-0--3--3-3--3--3-3-3-3--3--0--3~~|
C |-5---5--5-5-5-5--5---5-0--1--1-1--1--1-1-1-1--1--0-----|

Guitar 4:
C#|-------------------------------------------------------|
G#|-------------------------------------------------------|
E |-----4--4-4--5---5-5-9-9-9-9------------------------5~~|
B |-7---x--x-x--x---x-x-x-x-x-x--3---3--3-3-3-3--3-----5~~|
F#|-7---2--2-2--3---3-3-7-7-7-7--3---3--3-3-3-3--3--0--3~~|
C |-5----------------------------1---1--1-1-1-1--1--0-----|

=====================================================
Guitar 1:
C#|-0--0-0--0--0-0--0-0--0--0--0-0-0-0--1--1-1--1--1-1--1--1--1-1-1---|
G#|-1--1-1--1--1-1--1-1--1--1--0-0-0-0--1--1-1--1--1-1--1--1--1-1-1---|
E |-2--2-2--2--2-2--2-2--2--2--0-0-0-0--2--2-2--2--2-2--2--2--2-2-2-0-|
B |-2--2-2--2--2-2--2-2--2--2--2-2-2-2--3--3-3--3--3-3--3--3--3-3-3-0-|
F#|-0--0-0--0--0-0--0-0--0--0--2-2-2-2--3--3-3--3--3-3--3--3--3-3-3-0-|
C |----------------------------0-0-0-0--1--1-1--1--1-1--1--1--1-1-1---|

Guitar 2: tremelo effect.
C#|-17p\15-12-12p\10-10p\8-8p\7-7p\5-5h/7~~~~~~8~~~~~~~~~~~~~~~~~~~~~~|
G#|-------------------------------------------------------------------|
E |-------------------------------------------------------------------|
B |-------------------------------------------------------------------|
F#|-------------------------------------------------------------------|
C |-------------------------------------------------------------------|

Guitar 3:
C#|--------------------------------------------------------|
G#|--------------------------------------------------------|
E |--------------------------------------------------------|
B |-7---7--7-7-7-7--7--7------3--3-3--3~~~~------------3---|
F#|-7---7--7-7-7-7--7--7------3--3-3--3~~~~3-3-3-3-3-3-3-0-|
C |-5---5--5-5-5-5--5--5-0~~~~1--1-1--1~~~~1-1-1-1-1-1-1-0-|
                                           ........... 

Guitar 4:
C#|--------------------------------------------------------|
G#|--------------------------------------------------------|
E |-----4--4-4-5-5-5-5----9~~~-----------------------------|
B |-7---x--x-x-x-x-x-x-x--x~~~3~~3-3-3-3-3-------------3---|
F#|-7---2--2-2-3-3-3-3-x--7~~~3~~3-3-3-3-3-3-3-3-3-3-3-3-x-|
C |-5-------------------------1~~1-1-1-1-1-1-1-1-1-1-1-1-x-|
                                           ...........

End of Break 2.
========================================================
Chorus 3:

Guitar 1:
C#|-3--3-3--3-3--3--3--3-3-3-3--0--0-0--0--0-0--0--0--0-0-0---|
G#|-3--3-3--3-3--3--3--3-3-3-3--1--1-1--1--1-1--1--1--1-1-1-0-|
E |-0--0-0--0-0--0--0--0-0-0-0--2--2-2--2--2-2--2--2--2-2-2-0-|
B |-0--0-0--0-0--0--0--0-0-0-0--2--2-2--2--2-2--2--2--2-2-2-0-| x2
F#|-2--2-2--2-2--2--2--2-2-2-2--0--0-0--0--0-0--0--0--0-0-0---|
C |-3--3-3--3-3--3--3--3-3-3-3--------------------------------|

Guitar 3:
C#|-----------------------------------------------------------|
G#|-----------------------------------------------------------|
E |-----------------------------------------------------------|
B |-5--5-5--5--5---5-5--5---2~~~~~~~~~~~~~~~~~~~~~~~~~~~~~~~~~| x2
F#|-5--5-5--5--5---5-5--5-------------------------------------|
C |-3--3-3--3--3---3-3--3-------------------------------------|

Guitar 4:
C#|----------------------------------------------------------|
G#|----------------------------------------------------------|
E |----------------------------------------------------------|
B |-5--5--5-5-5-5--5--5--5-5--5--7--7--7-7-7-7--7--7--7-7--7-| x2
F#|-5--5--5-5-5-5--5--5--5-5--5--7--7--7-7-7-7--7--7--7-7--7-|
C |-3--3--3-3-3-3--3--3--3-3--3--5--5--5-5-5-5--5--5--5-5--5-|

=========================================================
Guitar 1:
                    [+++Pause++++]
C#|-3--3--3--3-3-3-3--------------0----0-0--0--0--0-0----|
G#|-3--3--3--3-3-3-3--------------1----1-1--1--1--1-1----|
E |-0--0--0--0-0-0-0--------------2----2-2--2--2--2-2--0-|
B |-0--0--0--0-0-0-0--------------2----2-2--2--2--2-2--0-|
F#|-2--2--2--2-2-2-2--------------0----0-0--0--0--0-0--0-|
C |-3--3--3--3-3-3-3-------------------------------------|

Guitar 2:
C#|----------------------------------------0~~~~~~~~~~~~~|
G#|------------------------------------------------------|
E |-------------------------------------10---------------|
B |----------------------------------10------------------|
F#|-10--10--10--10--10------------12---------------------|
C |------------------------------------------------------|

Guitar 3:
C#|-----------------------------------------------------------|
G#|-----------------8~~~~~~~~~~~~-----------------------------|
E |-----------------5~~~~~~~~~~~~-----------------------------|
B |-5---5--5-5--5----------------7--7--7--7-7-7-7--7--7-7-7-7-|
F#|-5---5--5-5--5----------------7--7--7--7-7-7-7--7--7-7-7-7-|
C |-3---3--3-3--3----------------5--5--5--5-5-5-5--5--5-5-5-5-|

Guitar 4:
C#|-----------------------------------------------------------|
G#|-----------------------------------------------------------|
E |-----------------------------------------------------------|
B |-5---5--5-5-5-5---------------7--7--7--7-7-7-7--7--7-7-7-7-|
F#|-5---5--5-5-5-5---------------7--7--7--7-7-7-7--7--7-7-7-7-|
C |-3---3--3-3-3-3--5p\\\\\\\\\\-5--5--5--5-5-5-5--5--5-5-5-5-|

==========================================================
Guitar 1:
C#|-3--3-3--3-3--3--3-3-3-3--1---1--1---1--1--1--1---|
G#|-3--3-3--3-3--3--3-3-3-3--1---1--1---1--1--1--1---|
E |-0--0-0--0-0--0--0-0-0-0--2---2--2---2--2--2--2-0-|
B |-0--0-0--0-0--0--0-0-0-0--3---3--3---3--3--3--3-0-|
F#|-2--2-2--2-2--2--2-2-2-2--3---3--3---3--3--3--3-0-|
C |-3--3-3--3-3--3--3-3-3-3--1---1--1---1--1--1--1---|

Guitar 2:
C#|-----------------------------------------0~~--------------0~~~------|
G#|---------------------------------------1----1-----------1-----1-----|
E |-------------------------------------2---------2------2---------2p0-|
B |--------------------------------\3-3----------------3---------------|
F#|-10--10--10--10--10--10--10--10-------------------------------------|
C |--------------------------------------------------------------------|

Guitars 3 and 4:
C#|-----------------------------------------------------------|
G#|-----------------------------------------------------------|
E |-----------------------------------------------------------|
B |-5--5--5-5-5-5--5--5-5-5----3------------------3-3-3-3-3-3-|
F#|-5--5--5-5-5-5--5--5-5-5-x--3--3-3-3-3-3-3-3-3-3-3-3-3-3-3-|
C |-3--3--3-3-3-3--3--3-3-3-x--1--1-1-1-1-1-1-1-1-1-1-1-1-1-1-|
                                  ...............

============================================================
Guitar 1:
C#|-0--0-0-0-0-0-0-0-0-0-0-0-0-0-0--1--1-1-1-1-1-1-1-1-1-1-1-1-1----|
G#|-1--1-1-1-1-1-1-1-1-1-1-1-1-1-1--1--1-1-1-1-1-1-1-1-1-1-1-1-1----|
E |-2--2-2-2-2-2-2-2-2-2-2-2-2-2-2--2--2-2-2-2-2-2-2-2-2-2-2-2-2--0-|
B |-2--2-2-2-2-2-2-2-2-2-2-2-2-2-2--3--3-3-3-3-3-3-3-3-3-3-3-3-3--0-|
F#|-0--0-0-0-0-0-0-0-0-0-0-0-0-0-0--3--3-3-3-3-3-3-3-3-3-3-3-3-3--0-|
C |---------------------------------1--1-1-1-1-1-1-1-1-1-1-1-1-1----|

Guitar 3:
C#|-----------------------------------------------------------------|
G#|-----------------------------------------------------------------|
E |-----------------5-5-5-5-9-9-9-----------------------------------|
B |-7-7-7-7-9-9-9-9-x-x-x-x-x-x-x---3-3-3-3-3-3-3-3-3-3-3-3-3-3-3---|
F#|-7-7-7-7-x-x-x-x-3-3-3-3-7-7-7-x-3-3-3-3-3-3-3-3-3-3-3-3-3-3-3-x-|
C |-5-5-5-5-7-7-7-7---------------x-1-1-1-1-1-1-1-1-1-1-1-1-1-1-1-x-|

Guitar 4:
C#|-----------------------------------------------------------------|
G#|-----------------------------------------------------------------|
E |-----------------------------------------------------------------|
B |-7-7-7-7-7-7-7-7-7-7-7-7-7-7-7---3-3-3-3-3-3-3-3-3-3-3-3-3-3-3---|
F#|-7-7-7-7-7-7-7-7-7-7-7-7-7-7-7-x-3-3-3-3-3-3-3-3-3-3-3-3-3-3-3-x-|
C |-5-5-5-5-5-5-5-5-5-5-5-5-5-5-5-x-1-1-1-1-1-1-1-1-1-1-1-1-1-1-1-x-|

End of Chorus 3.
=============================================================
Outro:

Guitar 1:
C#|-0---0-0---0---0-0--0--0--0--1--1-1--1--1-1--1--1----0-0-0-|
G#|-1---1-1---1---1-1--1--0--0--1--1-1--1--1-1--1--1----1-1-1-|
E |-2---2-2---2---2-2--2--0--0--2--2-2--2--2-2--2--2--0-0-0-0-|
B |-2---2-2---2---2-2--2--2--2--3--3-3--3--3-3--3--3--0-2-2-2-|
F#|-0---0-0---0---0-0--0--2--2--3--3-3--3--3-3--3--3--0-3-3-3-|
C |-----------------------0--0--1--1-1--1--1-1--1--1----------|

Guitar 2: tremelo effect.
C#|-17p\15-12-12p\10-10p\8-8p\7-7p\5-5p\3--3--5~~~~~~~~~~~~~~~|
G#|-----------------------------------------------------------|
E |-----------------------------------------------------------|
B |-----------------------------------------------------------|
F#|-----------------------------------------------------------|
C |-----------------------------------------------------------|

Guitars 3 and 4: Fade out.
C#|----------------------|
G#|----------------------|
E |----------------------|
B |-7~~~~~~~~~~~~~~~~~~~~|
F#|-7~~~~~~~~~~~~~~~~~~~~|
C |-5~~~~~~~~~~~~~~~~~~~~|

==============================================================
Guitar 1:
C#|-0---0-0---0---0-0--0--0--0--1--1-1--1--1-1--1--1----0-0-0-|
G#|-1---1-1---1---1-1--1--0--0--1--1-1--1--1-1--1--1----1-1-1-|
E |-2---2-2---2---2-2--2--0--0--2--2-2--2--2-2--2--2--0-0-0-0-|
B |-2---2-2---2---2-2--2--2--2--3--3-3--3--3-3--3--3--0-2-2-2-|
F#|-0---0-0---0---0-0--0--2--2--3--3-3--3--3-3--3--3--0-3-3-3-|
C |-----------------------0--0--1--1-1--1--1-1--1--1----------|

Guitar 2:
C#|-17p\15-12-12p\10-10p\8-8p\7-7p\5-5h/7--7--8~~~~~~~~~~~~~~~|
G#|-----------------------------------------------------------|
E |-----------------------------------------------------------|
B |-----------------------------------------------------------|
F#|-----------------------------------------------------------|
C |-----------------------------------------------------------|

===============================================================
Guitar 1:
C#|-0~~~~~~~~~~~~~~~~~~~~~~~|
G#|-1~~~~~~~~~~~~~~~~~~~~~~~|
E |-2~~~~~~~~~~~~~~~~~~~~~~~|
B |-2~~~~~~~~~~~~~~~~~~~~~~~|
F#|-0~~~~~~~~~~~~~~~~~~~~~~~|
C |-------------------------|


End of Song.


Please Rate and Comment My Tab.
Thanks.

[travis]


comments
print report bad tab
37 comments total. Showing first comments.
+3 reply
rongold360 wrote on May 14 2009, 07:34 pm

Again, great job.

+2 reply
Glenn Guitar wrote on May 17 2009, 02:49 pm

this is great! and you have the right tuning :)

0 reply
rongold360 wrote on May 19 2009, 06:47 pm

dude, btw, i mastered the whole thing. YES! Well, i did a while ago, but i thot i should tell you..... yeah....

I want to post or [tab]
guest
You may want to rate the tab now too:
select rating
Please do not post tabs as comments. Select "correction" instead!