Oops, an error
Loading. Please wait.

Snuff Tab

ver5
ver5

Whole song

Interactive

Video

More versions @911Tabs.com
5,546 views 18 this week
1 commentread comment
1 2 3 4 5
not so good
x 1
Autoscroll
+/-
esc
set tempo
stop
Contributor
Difficulty
Tuning
novice
D A D G B E
NEW! There's an official Ultimate Guitar app which is ideal
for learning songs when you're away from computer. Get the app
WARNING: You are trying to view
                                    content from Ultimate-Guitar.com
                                    in an unauthorized application,
                                    which is prohibited.

                                    Please use an official Ultimate
                                    Guitar Tabs application for iPhone,
                                    iPad or Android to access legitimate
                                    chords, guitar, bass, and drum tabs
                                    from Ultimate-Guitar.com database.

                                    Type "ultimate guitar tabs" in Apple
                                    App Store's or Android Market's
                                    search to find the application.
================================READ THIS===================================
THIS TAB IS REALLY DONE IN DROP D (D A D G B E) ... NOT HALF STEP DOWN.
THATS WHAT THE REQUEST SAID AND I CAN'T CHANGE IT.
============================================================================
LYRICS ARE PROVIDED FOR YOUR CONVENIENCE:

Bury all your secrets in my skin.
Come away with innocence, and leave me with my sins.
The air around me still feels like a cage.
And love is just a camouflage for what resembles rage again...

So if you love me, let me go.
And run away before I know.
My heart is just too dark to care.
I can't destroy what isn't there.
Deliver me into my fate.
If I'm alone I cannot hate.
I don't deserve to have you.
Ooo, my smile was taken long ago
If I can change I hope I never know.

I still press your letters to my lips.
And cherish them in parts of me that savor every kiss.
I couldn't face a life without your light.
But all of that was ripped apart
when you refused to fight.

So save your breath, I will not hear.
I think I made it very clear.
You couldn't hate enough to love.
Is that supposed to be enough?
I only wish you weren't my friend.
Then I could hurt you in the end.
I never claimed to be a saint.
Ooo, my own was banished long ago
it took the death of hope to let you go.

So break yourself against my stones
and spit your pity in my soul.
You never needed any help.
You sold me out to save yourself.
And I won't listen to your shame.
You ran away, you're all the same.
Angels like you control.
Ooo, my love was punished long ago
If you still care, don't ever let me know.
IF YOU STILL CARE, DON'T EVER LET ME KNOW!!!
============================================================================
GUITARS

RHYTHM:
AN ELECTRIC ATTATCHED TO A DISTORTION PEDAL AND THEN TO AN AMP SET TO A
CLEAN CHANNEL. ON YOUR PEDAL, I SUGGEST YOU SET THE THE DISTORTION PEDALS
KNOBS (BASS, TREBBLE, AND GAIN) AS FOLLOWS:

GAIN: CRANKED
TREBBLE: CRANKED
BASS: BACKED OFF A BIT (MAYBE 6 OR 7)

LEAD:
AN ELECTRIC ATTATCHED TO A DISTORTION PEDAL, AND THEN WHAT I BELEIVE IS A 
FLANGER PEDAL BUT I'M NOT EXACTLY SURE, AND THEN TO AN AMP SET TO A CLEAN 
CHANNEL. THE DISTORTION PEDAL SHOULD BE SET THE SAME AS THE RHYTHM GUITAR, 
BUT I DON'T KNOW HOW TO SET A FLANGER. ALL I KNOW IS THAT IT SHOULD BE SET 
SO THE SOUND IS, LETS SAY "FLANGING", REALLY FAST.
============================================================================
CHORD CHART:
F#m     E       D       A
E-2-|   E-0-|   E-2-|   E-0-|
B-2-|   B-0-|   B-3-|   B-2-|
G-2-|   G-1-|   G-2-|   B-2-|
D-4-|   D-2-|   D-0-|   D-2-|
A-4-|   A-2-|   A-0-|   A-0-|
D-X-|   D-X-|   D-0-|   D-X-|
============================================================================

============================================================================
                          INTRO AND FIRST VERSE:
============================================================================

Rhythm Guitar: (Distortion pedal off)
  
E-----------------|----------------|----------------|----------0-----|
B-2---------------|----------------|----------------|----------2-----|
G-2---------------|----------1-----|2---------------|----------2-----| (x6)
D-4---------------|----------2-----|0---------------|----------2-----|
A-4---------------|----------2-----|0---------------|----------------|
D-----------------|----------------|0---------------|----------------|

Lead Guitar: (Distrtion pedal and Fanger pedal off)

E-----------------|----------------|----------------|----------------|
B-----------------|----------------|----------------|----------------|
G-----------------|----------------|----------------|----------------| (x6)
D-4-------4-------|4-------4-------|4-------4-------|4-------4-------|
A-----4-------4---|----4-------4---|----5-------5---|----5-------5---|
D-----------------|----------------|----------------|----------------|


============================================================================
                               BRIDGE #2:
============================================================================

During the bridge the rhythm guitar plays straight chords:
F#m  E  D  A (x2)

Lead:

E-----------------|----------------|----------------|----------------|
B-----------------|----------------|----------------|----------------|
G-2-------4-------|6-------6-7-----|6-----------4\2-|4\2-4-------2-1-|
D-4-------6-------|7-------7-9-----|7-----------6\4-|6\4-6-------4-2-|
A-----------------|----------------|----------------|----------------|
D-----------------|----------------|----------------|----------------|


E-----------------|----------------|----------------|----------------|
B-----------------|----------------|----------------|----------------|
G-2-------4-------|6-------7-9-----|7\6-6-------4\2-|4\2-4-------2-1-|
D-4-------6-------|7-------9-11----|9\7-7-------6\4-|6\4-6-------4-2-|
A-----------------|----------------|----------------|----------------|
D-----------------|----------------|----------------|----------------|

============================================================================
                              CHORUS #1:
============================================================================

Rhythm Chords:
E  F#m (x3)
E  D

E-----------------|----------------|----------------|----------------|
B-----------------|----------------|----3-2---------|----------------|
G-----------------|----------------|--2-------------|----------------| (x4)
D-2---2---2---2---|2---2---2---2---|4---------------|----------------|
A-----------------|----------------|----------------|----------------|
D-----------------|----------------|----------------|----------------|

============================================================================
                           SECOND VERSE:
============================================================================

Rhythm Chords:
F#m  E  D  A (x6)


E-----------------|------------5/9-|9---------------|----------------|
B-2---2---2---2---|2---2---2-------|--7-7-------7---|7---5---5-------|
G-----------------|----------------|----------------|------------6\4-| (x2)
D-----------------|----------------|----------------|----------------|
A-----------------|----------------|----------------|----------------|
D-----------------|----------------|----------------|----------------|

============================================================================
DURING THE SECOND VERSE THERE IS SOME SORT OF BEEPING, BUT IT'S NOT GUITAR.
IT HAS ABSOLUTELY NO POINT IN THE SONG, BUT IF YOU ABSOLUTELY NEED TO KNOW 
THE NOTE, IT'S 9 ON THE HIGH E STRING.
============================================================================

============================================================================
                             CHORUS #2:
============================================================================

Rhythm hits the distortion pedal now:

E------|----------------|----------------|----------------|----------------|
B------|----------------|----------------|----------------|----------------|
G------|----------------|----------------|----------------|----------------|
D------|2---------------|----------------|4---------------|----------------|
A------|2---------------|----------------|4---------------|----------------|
D-/12\-|2---------------|----------------|4------h7p4-----|h7p4------------|

E-----------------|----------------|----------------|----------------|
B-----------------|----------------|----------------|----------------|
G-----------------|----------------|----------------|----------------|
D-2---------------|----------------|4---------------|----------------|
A-2---------------|----------------|4------h7p4-----|\2/4------------|
D-2---------------|----------------|4---------------|----------------|

E-----------------|----------------|----------------|----------------|
B-----------------|----------------|----------------|----------------|
G-----------------|----------------|----------------|----------------|
D-2---------------|----------------|4---------------|----------------|
A-2---------------|----------------|4---------------|----------------|
D-2---------------|----------------|4------h6-------|h7-----/8-------|

E-----------------|----------------|----------------|----------------|
B-----------------|----------------|----------------|----------------|
G-----------------|----------------|----------------|----------------|
D-2---------------|----------------|0---------------|----------------|
A-2---------------|----------------|0---0-0-0-0-0-0-|0-0-0-0-0-0-0-0-|
D-2~--------------|----------------|0---0-0-0-0-0-0-|0-0-0-0-0-0-0-0-|
                                        * * * * * *  * * * * * * * *
Lead (Still Clean):

E-----------------|----------------|----------------|----------------|
B-----------------|----------------|----3-2---------|----------------|
G-----------------|----------------|--2-------------|----------------| (x4)
D-2---2---2---2---|2---2---2---2---|4---------------|----------------|
A-----------------|----------------|----------------|----------------|
D-----------------|----------------|----------------|----------------|


============================================================================
                    RIFF BETWEEN CHORUS #2 AND CHORUS #3:
============================================================================

The lead hits the distortion and the reverb:


                                                           
       |E---14-12--------------|------------------|----------------|-------|
       |B---------14---12------|------------------|----------------|-------|
Lead:  |G-------------------14-|--13---11---9-----|11--------------|-------|
       |D----------------------|------------------|----------------|-------|
       |A----------------------|------------------|----------------|-------|
       |D----------------------|------------------|----------------|-------|
       |                                                                   |
       |                                                                   |
       |                                                                   |
       |E-----------------|----------------|----------------|--------------|
       |B-----------------|----------------|----------------|--------------|
Rhythm:|G-----------------|----------------|----------------|--------------|
       |D-4---------------|--------2-------|0---------------|--------------|
       |A-4---------------|--------2-------|0---------------|--------------|
       |D-4---------------|--------2-------|0---------------|--------------|


                                                           
       |E---14-12--------------|------------------|----------------|-------|
       |B---------14---12------|------------------|----------------|-------|
Lead:  |G-------------------14-|--13---11---13----|14--------------|-------|
       |D----------------------|------------------|----------------|-------|
       |A----------------------|------------------|----------------|-------|
       |D----------------------|------------------|----------------|-------|
       |                                                                   |
       |                                                                   |
       |                                                                   |
       |E-----------------|----------------|----------------|--------------|
       |B-----------------|----------------|----------------|--------------|
Rhythm:|G-----------------|----------------|----------------|--------------|
       |D-4---------------|--------2-------|0---------------|--------------|
       |A-4---------------|--------2-------|0---------------|--------------|
       |D-4---------------|--------2-------|0---------------|--------------|


                                                            
       |E---14-12--------------|------------------|----------------|-------|
       |B---------14---12------|------------------|----------------|-------|
Lead:  |G-------------------14-|--13---11---9-----|11--------------|-------|
       |D----------------------|------------------|----------------|-------|
       |A----------------------|------------------|----------------|-------|
       |D----------------------|------------------|----------------|-------|
       |                                                                   |
       |                                                                   |
       |                                                                   |
       |E-----------------|----------------|----------------|--------------|
       |B-----------------|----------------|----------------|--------------|
Rhythm:|G-----------------|----------------|----------------|--------------|
       |D-4---------------|--------2-------|0---------------|--------------|
       |A-4---------------|--------2-------|0---------------|--------------|
       |D-4---------------|--------2-------|0---------------|--------------|


                                                                            
       |E---14-12--------------|------------------|----------------|-------|
       |B---------14---12------|------------------|----------------|-------|
Lead:  |G-------------------14-|--13---11---13----|14--------------|-------|
       |D----------------------|------------------|----------------|-------|
       |A----------------------|------------------|----------------|-------|
       |D----------------------|------------------|----------------|-------|
       |                                                                   |
       |                                                                   |
       |                                                                   |
       |E-----------------|----------------|----------------|--------------|
       |B-----------------|----------------|----------------|--------------|
Rhythm:|G-----------------|----------------|----------------|--------------|
       |D-4---------------|--------2-------|0---------------|--------------|
       |A-4---------------|--------2-------|0---------------|--------------|
       |D-4---------------|--------2-------|0---------------|--------------|

============================================================================
                                CHORUS #3:
============================================================================

For the 3rd chorus, the lead guitar turns the Flanger pedal off, but leaves
the Distortion pedal off:

Rhythm Guitar:
E-----------------|----------------|----------------|----------------|
B-----------------|----------------|----------------|----------------|
G-----------------|----------------|----------------|----------------|
D-2---------------|----------------|4---------------|----------------|
A-2---------------|----------------|4---------------|----------------|
D-2---------------|----------------|4---------------|----------------|

E-----------------|----------------|----------------|----------------|
B-----------------|----------------|----------------|----------------|
G-----------------|----------------|----------------|----------------|
D-2---------------|----------------|4---------------|----------------|
A-2---------------|----------------|4---------------|----------------|
D-2---------------|----------------|4---------------|----------------|

E-----------------|--4b------r-----|----------------|----------------|
B-----------------|----------------|----------------|----------------|
G-----------------|----------------|----------------|----------------|
D-2---------------|----------------|4---------------|----------------|
A-2---------------|----------------|4---------------|----------------|
D-2---------------|----------------|4---------------|----------------|

E-----------------|----------------|----------------|----------------|
B-----------------|----------------|----------------|----------------|
G-----------------|----------------|----------------|----------------|
D-2---------------|----------------|0---0-0-0-0-0-0-|0-0-0-0-0-0-0-0-|
A-2---------------|----------------|0---0-0-0-0-0-0-|0-0-0-0-0-0-0-0-|
D-2---------------|----------------|0---0-0-0-0-0-0-|0-0-0-0-0-0-0-0-|
                                        * * * * * *  * * * * * * * *
Lead (Now Distorted):

E-----------------|----------------|----------------|----------------|
B-----------------|----------------|----3-2---------|----------------|
G-----------------|----------------|--2-------------|----------------| (x2)
D-2---2---2---2---|2---2---2---2---|4---------------|----------------|
A-----------------|----------------|----------------|----------------|
D-----------------|----------------|----------------|----------------|

E-----------------|----------------|----------------|----------------|
B-----------------|----------------|----3-2---------|----------------|
G-----------------|----------------|--2-------------|----------------|
D-2---2---2---2---|2-6b------r-----|4---------------|----------------|
A-----------------|----------------|----------------|----------------|
D-----------------|----------------|----------------|----------------|

E-----------------|----------------|----------------|----------------|
B-----------------|----------------|----3-2---------|----------------|
G-----------------|----------------|--2-------------|----------------|
D-2---2---2---2---|2---2---2---2---|4---------------|----------------|
A-----------------|----------------|----------------|----------------|
D-----------------|----------------|----------------|----------------|

============================================================================
                                BRIDGE #2
============================================================================

Rhythm:

E-----------------|----------------|----------------|----------------|
B-----------------|----------------|----------------|----------------|
G-----------------|----------------|----------------|----------------|
D-4-4-4-4-4-4-4-4-|4-4-4-4-2-2-2-2-|0-0-0-0-0-0-0-0-|0-0-0-0-0-0-0-0-|
A-4-4-4-4-4-4-4-4-|4-4-4-4-2-2-2-2-|0-0-0-0-0-0-0-0-|0-0-0-0-0-0-0-0-|
D-4-4-4-4-4-4-4-4-|4-4-4-4-2-2-2-2-|0-0-0-0-0-0-0-0-|0-0-0-0-0-0-0-0-|
  * * * * * * * *  * * * * * * * *  * * * * * * * *  * * * * * * * * 

Lead:

E-----------------|--------9-----12-|10--------------|----------------|
B-7-------9-------|10------X-----X--|X---------------|----------------|
G-X-------X-------|X-------6-----9--|7---------------|----------------|
D-4-------6-------|7----------------|----------------|----------------|
A-----------------|-----------------|----------------|----------------|
D-----------------|-----------------|----------------|----------------|

============================================================================
                                OUTRO:
============================================================================

Rhythm turns off distortion and plays chords:
F#m     E    D     A   (x2)

F#m~ (Holds as final chord)

Lead keeps distortion and flanger on:

E---14-12--------------|------------------|----------------|-------|
B---------14---12------|------------------|----------------|-------|
G-------------------14-|--13---11---9-----|11--------------|-------|
D----------------------|------------------|----------------|-------|
A----------------------|------------------|----------------|-------|
D----------------------|------------------|----------------|-------|


E---14-12--------------|------------------|----------------|-------|
B---------14---12------|------------------|----------------|-------|
G-------------------14-|--13---11---13----|14--------------|-------|
D----------------------|------------------|----------------|-------|
A----------------------|------------------|----------------|-------|
D----------------------|------------------|----------------|-------|

============================================================================
IF YOU'VE NOTICED, EVERYTIME THE LEAD GUITAR PLAYS THIS SEQUENCE OF NOTES, 
IT'S FOLLOWED BY ANOTHER SEQUENCE OF NOTES THAT I HAVEN'T WRITTEN. THESE 
NOTES ARE NOT PLAYED BY THE GUITAR. THEY ARE PLAYED BY A KEYBORD. AGAIN, IF
YOU ABSOLUTELY NEED TO KNOW THESE NOTES:

E---------14------|12------10------|----------------|-----------------|
B-----------------|----------------|14--------------|-----------------|
G-----------------|----------------|----------------|-----------------|
D-----------------|----------------|----------------|-----------------|
A-----------------|----------------|----------------|-----------------|
D-----------------|----------------|----------------|-----------------|

============================================================================

Tablature Legend
----------------
 h   - hammer-on
 p   - pull-off
 b   - bend
 pb  - pre-bend
 r   - bend release (if no number after the r, then release immediately)
 /\  - slide into or out of (from/to "nowhere")
 s   - legato slide
 S   - shift slide
*n*  - natural harmonic
[n]  - artificial harmonic
n(n) - tapped harmonic
 ~   - vibrato
 tr  - trill
 T   - tap
 TP  - trem. picking
 PM  - palm muting
\n/  - tremolo bar dip; n = amount to dip
 \n  - tremolo bar down
 n/  - tremolo bar up
/n\  - tremolo bar inverted dip
 =   - hold bend; also acts as connecting device for hammers/pulls
 <> - volume swell (louder/softer)
 x   - on rhythm slash represents muted slash
 o   - on rhythm slash represents single note slash

comments
We did not receive enough feedback on this tab! Please rate:
print report bad tab
1 2 3 4 5
1 comment total.
0 reply
lucifer1123 wrote on August 27 2011, 06:16 pm

i apologize. during the 2nd chorus with the rythm distorted, i accidentally added an extra bar. the rythms 4th bar of the "CHORUS #2" should not be there.

I want to post or [tab]
guest
You may want to rate the tab now too:
select rating
Please do not post tabs as comments. Select "correction" instead!