Oops, an error
Loading. Please wait.

Vol 3 The Subliminal Verses Bass Tab

6,901 views 4 this week
14 commentsread comments
1 2 3 4 5
worth learning
x 16
Autoscroll
+/-
esc
set tempo
stop
Contributor
Hey! There's an official Ultimate Guitar app which is ideal
for learning songs when you're away from computer. Get the app
WARNING: You are trying to view
                                    content from Ultimate-Guitar.com
                                    in an unauthorized application,
                                    which is prohibited.

                                    Please use an official Ultimate
                                    Guitar Tabs application for iPhone,
                                    iPad or Android to access legitimate
                                    chords, guitar, bass, and drum tabs
                                    from Ultimate-Guitar.com database.

                                    Type "ultimate guitar tabs" in Apple
                                    App Store's or Android Market's
                                    search to find the application.
Band- Slipknot
Album- Vol.3:The Subliminal Verses

1.PRELUDE 3.0

Tuning: Standard for a Four String Bass: E, A, D, G

00:00 - 01:26

figure #1: 8x
G|-------------------|   5x      played before vocals starting at 00:43.5--|
D|-------------------|   8x------------------------------------------------|      played before next part
A|-----3----5-------2------------------------------------------------------|           [(2) (optional, guitar plays)]
E|5------------------------------------------------------------------------|


01:27 - 01:59

figure #2: 4x
G|----------------|   4x      played untill next part
D|----------------|
A|3-5-------------|
E|-------333-5----|           (5) last time play untill guitar stops


01:59 - 02:41

figure #3: 4x
G|-------------------|   4x      played till next part
D|-------------------|
A|-----3----5--------|
E|5------------------|


02:41 - 03:12

figure #4:  4x before bridge
G|------------------|   4x      played before the next part(the bridge)
D|------------------|
A|3-5---------------|
E|---------333-5----|


03:12 - 03:57

figure #5:  4x
G|------------------|   4x------------------------------------------|     played before the ending of the song
D|------------------|  (at the last note of the last bass line------|
A|3-5---------------|   hold that last note and let it fade as the--|
E|---------333-5----------------------------------------------------|   song comes to a completion)

2.THE BLISTER EXISTS

Intro
G|------------|
D|------------|
A|------------|
E|------------|
B|-3-1-0--0-0-|

Chorus
G|----------------------------------|
D|----------------------------------|
A|----------------------------------|
E|--------------------------------3-|
B|-0--0-0--1-1-1-1-1-1--0--0-0--1---|

Verse
G|---------------|
D|---------------|
A|---------------|
E|---------------|
B|-0--0-1--3-4-3-|

Interclude1
G|-------------------|
D|-------------------|
A|-------------------|
E|-------------------|
B|-0~--------0-0~----|

Bridge
G|-----------------------------|
D|-----------------------------|
A|-----------------------------|
E|-----------------------------|
B|-1-0-0-1-0-0-1-0-0--0-0-0--0-|

3.THREE NIL

Standard 5-String Tuning BEADG

Intro  pt1 AND pt.2
|----------------------------------|
|----------------------------------|
|----------------------------------|
|----------------------------------|
|-1/9-0-3-2------------------------|

Pre-Verse Riff

|----------------------------------------------|
|----------------------------------------------|
|----------------------------------------------|  X8
|----------------------------------------------|
|-0-3\2-0-1b-0--0-3\2-0-1b-0-00-1b-0-----------|

Pre-Verse riff 2

|------------------------------------------|
|------------------------------------------|
|------------------------------------------|
|------------------------------------------|
|-1\4h3p-h1p0p-0-3-6-3-0-4-7-4-0-3---------|

 Pre-Verse Riff 3

|------------------------------------------|
|------------------------------------------|
|------------------------------------------|
|------------------------------------------|
|-0-4-3-0-1-0-0-3-6-3-0-4-7-4-0-3----------|

Verse Riff
|------------------------------------------|
|------------------------------------------|
|------------------------------------------|
|------------------------------------------|
|-0-4/3-0-1p0-0-3-6-3-0-4-7-4-0-3----------|

Pre-Chorus Fill In
|-------------------------------------------------------------|
|-------------------------------------------------------------|
|-------------------------------------------------------------|
|-------------------------------------------------------------|
|-0-4-3-1-0----0-1-0--0-1-0-4-3-1-0--0-1-0-0--0-4-3-0---------|

Pre-Verse Riff
|----------------------------------------------------------------|
|----------------------------------------------------------------|
|----------------------------------------------------------------|
|----------------------------------------------------------------|
|-0-3\2-0-1b-0--0-3\2-0-1b-0-00-1b-0-0-3\2-0-1b-0-0-3\2-0-0------|

Pre-Chorus Riff 2
|-------------------------------------------------------------|
|-------------------------------------------------------------|
|-------------------------------------------------------------|
|---5-6-----6-9-5---------------------------------------------|  X2
|-2-----3-5---------------------------------------------------|

|-------------------------------------------------------------|
|-------------------------------------------------------------|
|-------------------------------------------------------------|
|---5-6-----8--9--5-------------------------------------------| X2
|-5-----6-8---------------------------------------------------|

|-------------------------------------------------------------|
|-------------------------------------------------------------|
|-------------------------------------------------------------|
|---5-6-----6-9-5---------------------------------------------|  X2
|-2-----3-5---------------------------------------------------|

|-------------------------------------------------------------|
|-------------------------------------------------------------|
|-------------------------------------------------------------|
|---5-6-----8--9--5-------------------------------------------| X2
|-5-----6-8---------------------------------------------------|

Pre-Verse Riff
|------------------------------------------|
|------------------------------------------|
|------------------------------------------|  X2
|------------------------------------------|
|-0-3\2-0-1b-0--0-3\2-0-1b-0-00-1b-0-------|

 Pre-Verse Riff
|-------------------------------------------------------|
|-------------------------------------------------------|
|-------------------------------------------------------|
|-------------------------------------------------------|
|-0-3\2-0-1b-0--0-3\2-0-1b-0-00--00--00-0-5-0-6/--------|

Verse Riff 2
|--------------------------------|
|--------------------------------|
|--------------------------------|
|--------------------------------|
|-1-4-3-1p-0-0-4-3-1p-0-0-1p-0---|

End The Riff
|--------------------------------|
|--------------------------------|
|--------------------------------|
|--------------------------------|
|-1-4-3--------------------------|

 Pre-Chorus Riff
|--------------------------------|
|--------------------------------|
|--------------------------------| X2
|---5-6-----6-9-5----------------|
|-4-----3-5----------------------|

|--------------------------------|
|--------------------------------|
|----12-13--------10-11----------| X2
|-7--------12-13-------11--------|
|--------------------------------|

|--------------------------------|
|--------------------------------|
|--------------------------------|
|---5-6-----6-9-5----------------|  X2
|-2-----3-5----------------------|

|--------------------------------|
|--------------------------------|
|--------------------------------|
|---5-6-----8--9--5--------------| X2
|-5-----6-8----------------------|

Chorus
|------------------------------------------------------------------------------------|
|------------------------------------------------------------------------------------|
|------------------------------------------------------------------------------------|
|------------------------------------------------------------------------------------|
|-10-0-0000000000-10-0-0000000000--2-3-3333333333\5-6-6666666666---------------------|

|---------------------------------------------------------------------------------------|
|---------------------------------------------------------------------------------------|
|---------------------------------------------------------------------------------------|
|-----------3\555/33-----------3\555/33------------------------------------3\*12--------|
|-10-0-0000----------10-0-0000----------2-3-3333333333\5-6-6666666666-------------------|

Breakdown
|----------------------------------|
|----------------------------------|
|----------------------------------|
|----------------------------------|
|-1/9-0-3-2------------------------|

Bridge Riff
|----------------------------------|
|----------------------------------|
|----------------------------------|
|----------------------------------|
|-1-3-0-3-0-5-0-6------------------|

Bridge Riff 2
|-----------------------------------|
|-----------------------------------|
|-----------------------------------|
|-----------------------------------|
|-1\3-0-3-0-5-3-6-------------------|

|----------------------------------|
|----------------------------------|
|----------------------------------|
|---------555\6/444----------------|
|-1\3-0-3--------------------------|

|------------------------------------------------------------------------------------|
|------------------------------------------------------------------------------------|
|------------------------------------------------------------------------------------|
|------------------------------------------------------------------------------------|
|-10-0-0000000000-10-0-0000000000--2-3-3333333333\5-6-6666666666---------------------|

|---------------------------------------------------------------------------------------|
|---------------------------------------------------------------------------------------|
|---------------------------------------------------------------------------------------|
|-----------3\555/33-----------3\555/33------------------------------------3\*12--------|
|-10-0-0000----------10-0-0000----------2-3-3333333333\5-6-6666666666-------------------|

|-------------------------|
|-------------------------|
|-------------------------| X4
|---5-6-----6-9-5---------|
|-4-----6-9---------------|

|-------------------------|
|-------------------------|
|----12-13--------10-11---|   X4
|-7--------12-13-------11-|
|-------------------------|

Outro Riff
|-------------------|
|-------------------|
|-------------------|
|-------------------|
|-1\3-0-3-1-5-3-6---|

End
|-------------------|
|-------------------|
|-------------------|
|-------------------|
|-1\3-0-3-1-5-3-6---|

4.DUALITY

Tuning: B F# B E

/-Slide
^-Bend

Intro
E |-----------------------|
B |-----------------------| x2
F#|-----------------------|
B |-0-------3------6-1----|

Intro 2
E |----------------------------------|
B |----------------------------------| x2
F#|----------------------------------|
B |-0000000000000003333333/6\1111111-|

Interlude
E |------------------------|
B |------------------------|
F#|------------------------|
B |-000-00-000-0-1-0-3-6^--|
                             all x2
E |------------------------|
B |------------------------|
F#|------------------------|
B |-000-00-000-0-1-0-1-3---|

Verse 1
E |------------------|
B |------------------| x8
F#|------------------|
B |-7--10-5-7-3-5-0--|

Pre-Chorus 1
E |-------------------------------|
B |-------------------------------|
F#|-------------------------------|
B |-3-3-33-33-3-33-33-3-33-32-2-3-|

Chorus 1
E |----------------------------------|
B |----------------------------------|
F#|----------------------------------| x2
B |-0000000000000003333333/6\1111111-|

Pre-Verse 2
E |--------------|
B |--------------|
F#|--------------|
B |-10/-3-5-1-0--|

Verse 2
E |------------------|
B |------------------| x4
F#|------------------|
B |-7--10-5-7-3-5-0--|

Pre-Chorus 2
E |-------------------------------|
B |-------------------------------|
F#|-------------------------------|
B |-3-3-33-33-3-33-33-3-33-32-2-3-|

Chorus 2
E |----------------------------------|
B |----------------------------------| x4
F#|----------------------------------|
B |-0000000000000003333333/6\1111111-|

Bridge 1 and the "all I've got" bit
E |------------------------|
B |------------------------|
F#|------------------------|
B |-000-00-000-0-1-0-3-6^--|
                             all x2
E |------------------------|
B |------------------------|
F#|------------------------|
B |-000-00-000-0-1-0-1-3---|

Bridge 2(heavy)
E |------------------------|
B |------------------------|
F#|------------------------|
B |-111-11-111-0-1-0-3-6^--|
                             all x2
E |------------------------|
B |------------------------|
F#|------------------------|
B |-111-11-111-0-1-0-1-3---|

Pre-Chorus 3
E |-------------------------------|
B |-------------------------------|
F#|-------------------------------|
B |-3-3-33-33-3-33-33-3-33-32-2-3-|

Drum roll fast before final chorus
E |-------------------------|
B |-------------------------|
F#|-------------------------|
B |-0-3-2-5-68-11-7-10-7-57-|

Chorus 3
E |-------------------------------------|
B |-------------------------------------| x4
F#|-------------------------------------|
B |-10/0000000000000003333333/6\1111111-|

Outro
E |------------------------|
B |------------------------|
F#|------------------------|
B |-000-00-000-0-1-0-3-6^--|
                             all x3
E |------------------------|
B |------------------------|
F#|------------------------|
B |-000-00-000-0-1-0-1-3---|

5.OPIUM OF THE PEOPLE

G|------------------------------------|
D|------------------------------------|
A|------------------------------------|
E|------------------------------------|
B|--/-0----0-----00----0-----00~------|

G|-----------------------------------------------------------------------------------------|
D|-----------------------------------------------------------------------------------------|
A|-----------------------------------------------------------------------------------------|
E|-----------------------------------------------------------------------------------------|
B|--0-000000-0-00000-0-000000-0-000000-0-000000-0-00000-0-000000-0-00000-0-000000-0-00000--|

G|-------------------------------------------------------------------------------------------------|
D|-------------------------------------------------------------------------------------------------|
A|-------------------------------------------------------------------------------------------------|
E|-------------------------------------------------------------------------------------------------|
B|---0---3-2-1-1/2-x-x--0---3-2-1-1/2-x-x--0---3-2-1-1/2-x-x--0---3-2-1--5-6-7-8^-----3-2-1-1-1-1--|
( repeate a few times)

G|---------------------------|
D|---------------------------|
A|---------------------------|
E|---------------------------|
B|--7777 -1111-0000-8888-----|
 (repeate over and over)

G|----------------------------------------|
D|----------------------------------------|
A|----------------------------------------|
E|----------------------------------------|
B|--5------10---8-----5----8--10--8-------|
(lyrics: STOP! STOP! STOP!; at this point)

G|------------------------------|
D|------------------------------|
A|------------------------------|
E|------------------------------|
B|--00-000-00-000-00-000-00-000-|

6.CIRCLE

Stansard Tuning EADG
Intro x2
G---------------------|
D---------------------|
A---------------------|
E-----10-8-7-5-3-5/12-|

Play After Intro
G---------------------|
D---------------------|
A---------------------|
E---3-5-7-8-10-8/12---|

VERSE REPAEAT AS MANY TIMES AS NEDDED
G----------------|
D----------------|
A----------------|
E---3-5-2-3-0----|

CHOROUS
G----------------|
D----------------|
A----5--0--3--7--|
E----------------|

PLAY THIS RIGHT AFTER THE FIRST CHOROUS IS OVER
G----------------|
D----------------|
A------7---------|
E---3-----0------|

THEN PLAY THIS BEFORE THE BIG ASS DRUM SOLO
G---------------|
D---------------|
A----3-------7--|
E-------3-------|

7.WELCOME

Don't Know

8.VERMILION

Tunning: B,E,A,D

__ Let Ring


Intro / Verse (Corrected)
D¦-----------------------------------------¦
A¦--------777666666------------------------¦
E¦-444666-----------777777/10101010-666666-¦
B¦-----------------------------------------¦

Post - verse (\"She is the only one that makes me sad!!!\")
D¦---------------¦
A¦-2-------------¦
E¦---------------¦x1
B¦---0-0-0-0-0-0-¦

D¦-----------------¦
A¦-----------------¦
E¦-----------------¦x4
B¦-000111000666555-¦

Pre - Chorus (\"Hard to say what caught my attention\")
D¦--------------------------¦
A¦--------------------------¦
E¦--------------------------¦x2
B¦-1/0-000-1/0-000-33332222-¦

D¦----------------------------¦
A¦----------------------------¦
E¦----------------------------¦x2
B¦-1/0-000-1/0-000-3/44443333-¦

Chorus
D¦----------------------¦
A¦----------------------¦
E¦-3333322222-----------¦
B¦-----------0000033333-¦

Bridge
D¦---------¦
A¦---------¦
E¦---------¦x3
B¦-1/00000-¦

Guitar solo
D¦-----------------------------------------------------¦
A¦-----------------------------------------------------¦
E¦-----------------------------------------------------¦x4
B¦-1/000000000000-1/000000000000-1/000000000000-444666-¦

D¦--------¦
A¦--------¦
E¦--------¦x2
B¦-444666-¦

After solo play again de Pre - Chorus

Outro (Right after the last Chorus)
D¦---------------------------------------------------------¦
A¦---------------------------------------------------------¦
E¦---------------------------------------------------------¦x1
B¦-000000000000-8888855555-7777733333-777755557-0000000000-¦

D¦--------------------------------------------¦
A¦--------------------------------------------¦
E¦--------------------------------------------¦x4
B¦-8888855555-7777733333-777755557-0000000000-¦

D¦------------------------------------------¦
A¦------------------------------------------¦
E¦------------------------------------------¦x1
B¦-8888855555-7777733333-777755557-0_______-¦

9.PULSE OF THE MAGGOTS

Tuning: B E A D G  (5 string tuning)

INTRO
---------------------------------------------------------------------|
---------------------------------------------------------------------|
---------------------------------------------------------------------|
---------------------------------------------------------------------|
-0---0---------------0---1~~~~~~0--0--0--3///////////13~~~~~---------| (x2)

--------------------------------------------------------------------|
--------------------------------------------------------------------|
--------------------------------------------------------------------|
-14p-15-14p-15-14p-15-14p-15-14p-15-14p-15-14p-15--14---3---4---5---|
--------------------------------------------------------------------| (x1)

----------------------------------------------------------------------|
----------------------------------------------------------------------|
----------------------------------------------------------------------|
-3-3-3---4-4-4---5-5-5------------------------------------------------|
-------------------------3---3---3---4---3----1-----------------------| (x1)

---------------------------------------------------------------------|
---------------------------------------------------------------------|
---------------------------------------------------------------------|
---------------------------------------------------------------------|
-0---0---------------0---1~~~~~~0--0--0--3///////////13~~~~~---------| (x8)

------------------------------------------------------------|
------------------------------------------------------------|
------------------------------------------------------------|
------------------------------------------------------------|
-6------5-------6---3-----5---3-----0---1---0---------------|(x1)

VERSE
-----------------------------------------------------------------------|
-----------------------------------------------------------------------|
-----------------------------------------------------------------------|
-----------------------------------------------------------------------|
-0---0-----------0---1~~~~~~-0---0-----------0---1---3---4---3---1---0-|

------------------------------------------------------------|
------------------------------------------------------------|
------------------------------------------------------------|
------------------------------------------------------------|
-----0---1~~~~~~0--0--0---3///////////13--------------------|

CHORUS 1
------------------------------------------------------------|
------------------------------------------------------------|
------------------------------------------------------------|
------------------------------------------------------------|
-6------5-------6---3-----5---3-----0---1---0---------------|

CHORUS END
---------------------------------------------------------------------|
---------------------------------------------------------------------|
---------------------------------------------------------------------|
---------------------------------------------------------------------|
-0---0---------------0---1~~~~~~0--0--0--3///////////13~~~~~---------|

REFRAIN
--------------------------------------------------------------|
---------3-----------2-------3---0-------2---0----------------|
-------------------------------------------------4-4----------|
--------------------------------------------------------------|
--------------------------------------------------------------|

DURING THE SOLO
----------------------------------------------------------------------|
----------------------------------------------------------------------|
----------------------------------------------------------------------|
-3/5/3/6-------4---4---4---4---4---4---4---4---4---4---4--------------|
----------------------------------------------------------------------|

------------------------------------------------------------------|
------------------------------------------------------------------|
------------------------------------------------------------------|
-3/5/3/6-------4---4----------------------------------------------|
-----------------------------0-----0---0----1----1--1--1----------|

---------------------------------------------------------------------|
---------------------------------------------------------------------|
---------------------------------------------------------------------|
-3/5/3/6-------4---4---4---4---4---4---4---4---4---4---4-------------|
---------------------------------------------------------------------|

---------------------------------------------------------------------|
---------------------------------------------------------------------|
---------------------------------------------------------------------|
-3/5/3/6-------4---4-------------------------------------------------|
-----------------------------0-----0---0-----3~~~~~~~~~~~~~~~~~~~----|

BRIDGE
---------------------------------------------------------------------------|
---------------------------------------------------------------------------|
---------------------------------------------------------------------------|
---------------------------------------------------------------------------|
-0---1---0---3~~~~~~---0---0---0---0---3~~~~~~-----1-------3-------4-------|

10.BEFORE I FORGET

AFTER & DURING GUITAR INTRO
G---
D---
A---
E---
B-2-
PLAY 15 TIMES


INTRO
G----------------------------------------------------------------------|
D----------------------------------------------------------------------|
A----------------------------------------------------------------------|
E----------------------------------------------------------------------|
B-5-5-00--5-5-00----02-02-02-32---5-5-00--02-02-02-32---5-5-00--5-5-00-|
                        (X4)                   (X4)

VERSE
G--------------------|
D--------------------|
A--------------------|
E--------------------|
B-22222--222--5-5-00-|play this at the end twice
play how evrymany
times paul plays it

FILL
G----------------|
D----------------|
A----------------|
E----------------|
B-3~ -5~ -2~ -0~-|
this is during the guitars harmonics

CHORUS
G-----------------------------------------|
D-----------------------------------------|
A-----------------------------------------|
E-----------------------------------------|
B-2--025-025-402-------7777-8-7-10-7-5555-|

GUITAR AND BASS SOLO
G-------------------------------------------------------------------|
D-------------------------------------------------------------------|
A-------------------------------------------------------------------|
E-------------------------------------------------------------------|
B-8~ -5~ -7~ -2~ -0~---------88888888--55555555--77777777--22220000-|

then back to the intro

11.VERMILION PT.2

Don't Know

12.THE NAMELESS

Tunning: B,E,A,D

__ Let Ring

Intro
D¦---------------------------------------------------------------------------¦
A¦---------------------------------------------------------------------------¦
E¦---------------------------------------------------------------------------¦
B¦-32--23232--21--23232--32--23232--21--23232--32--23232-5/00000000000000000-¦

Heavy Intro
D¦---------------------------------------------------------------------------¦
A¦---------------------------------------------------------------------------¦
E¦-4-2------------------4-2------------------4-2---4-6-4----4-2--------------¦
B¦------0000000-1/2/1-0------0000000-1/2/1-0-----3-------33----00000-1/2/1-0-¦

Verse
D¦---------------------¦
A¦---------------------¦
E¦---------------------¦x3
B¦-10-01010-10---01010-¦

D¦------------------------¦
A¦------------------------¦
E¦------------------------¦x1
B¦-10-01010-1000000000000-¦

Pre - Chorus: Same as the Heavy Intro

Chorus: The bass doesn't play anything during the first 2 chorus

Pre - verse II
D¦------------------------------------------------¦
A¦------------------------------------------------¦
E¦------------------------------------------------¦
B¦-32--23232--21--23232--32--23232--21--23232--9/-¦


Bridge (Listen song for timin)
D¦----------------------------------------------------------¦
A¦----------------------------------------------------------¦
E¦---------------------3-5-3------------------------2-4-2---¦x7
B¦-10-00-100-10-00-100-------3--10-00-100-10-00-100-------2-¦

D¦----------------------------------------------------------------------¦
A¦----------------------------------------------------------------------¦
E¦---------------------3-5-3------------------------2-4-2---3-5-3-------¦x1
B¦-10-00-100-10-00-100-------3--10-00-100-10-00-100-------2-------3-000-¦

Last Chorus
D¦----------------------------¦
A¦----------------------------¦
E¦----------------------------¦x2
B¦-0-03-333-5-55-3-37-77-2-22-¦

D¦-----------------------------------¦
A¦-----------------------------------¦
E¦-----------------------------------¦
B¦-0-03-333-55555555-3-3777-22222222-¦

D¦------------------------------¦
A¦------------------------------¦
E¦------------------------------¦
B¦-0-03-333-55555555-3-3777____-¦

Outro
D¦----------------------------------------------------------¦
A¦----------------------------------------------------------¦
E¦---------------------3-5-3------------------------2-4-2---¦x3
B¦-10-00-100-10-00-100-------3--10-00-100-10-00-100-------2-¦

D¦--------------------------------------------------¦
A¦--------------------------------------------------¦
E¦---------------------3-5-3------------------------¦x1
B¦-10-00-100-10-00-100-------3--10-00-100-10-00-100-¦

13.THE VIRUS OF LIFE

Intro:
----------------|
----------------|
----------------|
----------------|
--0-3-2-0--3-0--|

Riff 1
-------------|
-------------|
-------------|
-------------|
--0-0-3-2-0--|

riff 2:
------------------------------------------------------------------|
------------------------------------------------------------------|
------------------------------------------------------------------|
------------------------------------------------------------------|
--111-1-1-1-1-1-1-1-1-1-1-1-1-1-1-333-0-0-0-0-0-0-0-0-0-0-0-0-0-0-|

riff 3
-------------------------------------------------------------------------|
-------------------------------------------------------------------------|
-------------------------------------------------------------------------|
-------7b----------------5b----------------------------------------------|
-2-1-0----1-0-3b---2-1-0-----1-0-3b---2-1-0-5---1-0-3b---2-1-0-3---1-03b-|

riff 4:
-------------------------------------|
-------------------------------------|
-------------------------------------|
-----------------------------7-6-5-0-|
--0-2-1-0-3-3-0-4-4-5-1-1-1----------|

Riff 5:
-------------------|
-------------------|
-------------------|
-------------------|
--0-0-3-2-0--0--0--|

14.DANGER-KEEP AWAY

Tunning: B,E,A,D

Intro

(We do feel alone)
D¦--------3-------------3---¦
A¦-5-5-5----55-3333-555---5-¦x2
E¦--------------------------¦
B¦--------------------------¦

D¦---3----3-------------3---¦
A¦-5---5----55-3333-555---5-¦
E¦--------------------------¦
B¦--------------------------¦

D¦--------3-------------3---¦
A¦-5-3-5----55-3333-555---5-¦
E¦--------------------------¦
B¦--------------------------¦

D¦--------3-------------3---¦
A¦-5-5-5----55-3333-555---5-¦
E¦--------------------------¦
B¦--------------------------¦

Chorus (That place in my mind)
D¦---3----3-------------3---¦
A¦-5---5----55-3333-555---5-¦
E¦--------------------------¦
B¦--------------------------¦

D¦--------3-------------3---¦
A¦-5-5-5----55-3333-555---5-¦
E¦--------------------------¦
B¦--------------------------¦

D¦---3-2---3-------------3---¦
A¦-5-----5---55-3333-555---5-¦
E¦---------------------------¦
B¦---------------------------¦

D¦--------3-------------3---¦
A¦-5-5-5----55-3333-555---5-¦
E¦--------------------------¦
B¦--------------------------¦

Verse (When drums comes in)
D¦--------3-------------3---¦
A¦-5-5-5----55-3333-555---5-¦
E¦--------------------------¦
B¦--------------------------¦

D¦---3----3-------------3---¦
A¦-5---5----55-3333-555---5-¦
E¦--------------------------¦
B¦--------------------------¦

D¦--------3-------------3---¦
A¦-5-3-5----55-3333-555---5-¦
E¦--------------------------¦
B¦--------------------------¦

D¦--------3-------------3---¦
A¦-5-5-5----55-3333-555---5-¦
E¦--------------------------¦
B¦--------------------------¦

D¦---3----3-------------3---¦
A¦-5---5----55-3333-555---5-¦
E¦--------------------------¦
B¦--------------------------¦

D¦--------3-------------3---¦
A¦-5-5-5----55-3333-555---5-¦
E¦--------------------------¦
B¦--------------------------¦

D¦---3-2---3-------------3---¦
A¦-5-----5---55-3333-555---5-¦
E¦---------------------------¦
B¦---------------------------¦

D¦--------3-------------3---¦
A¦-5-5-5----55-3333-555---5-¦
E¦--------------------------¦
B¦--------------------------¦

Chorus II
D¦--------3-------------3---¦
A¦-5-5-5----55-3333-555---5-¦
E¦--------------------------¦
B¦--------------------------¦

D¦---3----3-------------3---¦
A¦-5---5----55-3333-555---5-¦
E¦--------------------------¦
B¦--------------------------¦

D¦--------3-------------3---¦
A¦-5-3-5----55-3333-555---5-¦
E¦--------------------------¦
B¦--------------------------¦

D¦--------3-------------3---¦
A¦-5-5-5----55-3333-555---5-¦
E¦--------------------------¦
B¦--------------------------¦

Last verse ( I wont let you walk away)
D¦---3----3-------------3---¦
A¦-5---5----55-3333-555---5-¦
E¦--------------------------¦
B¦--------------------------¦

D¦--------3-------------3---¦
A¦-5-5-5----55-3333-555---5-¦
E¦--------------------------¦
B¦--------------------------¦

D¦---3-2---3-------------3---¦
A¦-5-----5---55-3333-555---5-¦
E¦---------------------------¦
B¦---------------------------¦

D¦---3----3-------------3---¦
A¦-5---5----55-3333-555---5-¦
E¦--------------------------¦
B¦--------------------------¦

Outro
D¦--------3-------------3---¦
A¦-5-5-5----55-3333-555---5-¦x2
E¦--------------------------¦
B¦--------------------------¦

D¦---3-2-¦
A¦-5-----¦
E¦-------¦
B¦-------¦
comments
print report bad tab
14 comments total. Showing first comments.
0 reply
molerat35 wrote on November 9 2005, 12:58 pm

wrong

0 reply
Mikinzo wrote on April 25 2006, 06:07 pm

greatTTTTTTTTTTTTTTTTTTTTTT

0 reply
Mikinzo wrote on April 25 2006, 06:08 pm
















































































I want to post or [tab]
guest
You may want to rate the tab now too:
select rating
Please do not post tabs as comments. Select "correction" instead!