Oops, an error
Loading. Please wait.

Vol 3 The Subliminal Verses Tab

39,680 views 42 this week
18 commentsread comments
1 2 3 4 5
worth learning
x 17
Autoscroll
+/-
esc
set tempo
stop
Contributor
Hey! There's an official Ultimate Guitar app which is ideal
for learning songs when you're away from computer. Get the app
WARNING: You are trying to view
                                    content from Ultimate-Guitar.com
                                    in an unauthorized application,
                                    which is prohibited.

                                    Please use an official Ultimate
                                    Guitar Tabs application for iPhone,
                                    iPad or Android to access legitimate
                                    chords, guitar, bass, and drum tabs
                                    from Ultimate-Guitar.com database.

                                    Type "ultimate guitar tabs" in Apple
                                    App Store's or Android Market's
                                    search to find the application.
Band: Slipknot
Album: Vol. 3 (The Subliminal Verses)
Done By: Daniel Luengas
E-Mail: dblink182col@hotmail.com

hey, here is the hole album... i took all the best rated songs for this 
album so it should be right.
hope you give me some credit for putting them all together.

Note: If you see your tab here and you would like me to take it off, 
just e-mail me.

Missing things:

* Solo of Vermilion
* welcome
* Danger - keep Away 


ok here we go....
 
Prelude 3.0


Verse 1: x2 Guitar 1 (Guitar 2 mute)
|--------------------------|
|--------------------------|
|--------------------------|
|-7----10---12---------9---|
|-7----10---12---------9---|
|-5-----8---10---------7---|

Verse 2: x4
Guitar 1:
|--------------------------|
|--------------------------|
|--------------------------|
|-7----10---12---------9---|
|-7----10---12---------9---|
|-5-----8---10---------7---|

Guitar 2:
|-4-0---4-0---4-0---4-0---4-0---4-0---4-0---4-0---|
|-----3-----3-----3-----3-----3-----3-----3-----3-|
|-------------------------------------------------|
|-------------------------------------------------|
|-------------------------------------------------|
|-------------------------------------------------|

|-0-----0-----0-----0-----0-----0-----0-----0-----|
|---1-----1-----1-----1-----1-----1-----1-----1---|
|-----2-----2-----2-----2-----2-----2-----2-----2-|
|-------------------------------------------------|
|-------------------------------------------------|
|-------------------------------------------------|


Verse 1: x2 Guitar 1 (Guitar 2 mute)
|--------------------------|
|--------------------------|
|--------------------------|
|-7----10---12---------9---|
|-7----10---12---------9---|
|-5-----8---10---------7---|


Chorus: x4
Guitar 1:
|--------------------------------|
|--------------------------------|
|--------------------------------|
|-10---12--------5---9-5--7------|
|-10---12--------5---9-5--7------|
|--8---10--------3---7-3--5------|

Guitar 2:
|----------------8--7--5--8--7--5|
|--------------------------------|
|--------------------------------|
|--------------------------------|
|--------------------------------|
|--------------------------------|


Verse 2: x4
Guitar 1:
|--------------------------|
|--------------------------|
|--------------------------|
|-7----10---12---------9---|
|-7----10---12---------9---|
|-5-----8---10---------7---|

Guitar 2:
|-4-0---4-0---4-0---4-0---4-0---4-0---4-0---4-0---|
|-----3-----3-----3-----3-----3-----3-----3-----3-|
|-------------------------------------------------|
|-------------------------------------------------|
|-------------------------------------------------|
|-------------------------------------------------|

|-0-----0-----0-----0-----0-----0-----0-----0-----|
|---1-----1-----1-----1-----1-----1-----1-----1---|
|-----2-----2-----2-----2-----2-----2-----2-----2-|
|-------------------------------------------------|
|-------------------------------------------------|
|-------------------------------------------------|


Verse 1: x2 Guitar 1 (Guitar 2 mute)
|--------------------------|
|--------------------------|
|--------------------------|
|-7----10---12---------9---|
|-7----10---12---------9---|
|-5-----8---10---------7---|


Chorus: x8
Guitar 1:
|--------------------------------|
|--------------------------------|
|--------------------------------|
|-10---12--------5---9-5--7------|
|-10---12--------5---9-5--7------|
|--8---10--------3---7-3--5------|

Guitar 2:
|----------------8--7--5--8--7--5|
|--------------------------------|
|--------------------------------|
|--------------------------------|
|--------------------------------|
|--------------------------------|


_____________________________________________________________________________

The Blister Exists

b - bend string up
r - release bend
h - hammer on
p - pull off
/ - slide up
\ - slide down
x - muted, struck string
P.M - palm muted

  
Tuning: Drop D, down 1 1/2 steps ( B F# B E G# C# )

Intro:
|--------------------------|
|--------------------------|
|--------------------------|  
|--------------------------| x17
|--------------------------|
|--12b13r12---0-x-x-0-x-x--|

[0:22]
|---------------------------------------------------------------------|
|---------------------------------------------------------------------|
|---------------------------------------------------------------------|
|---------------------------------------------------------------------| x4
|---------------------------------5---------------------------------3-|
|--0-x-x-0--1-1-1-1--0-x-x-0--0-1----0-x-x-0--1-1-1-1--0-x-x-0--0-1---|

[0:42]
|------------------|
|------------------|
|------------------| 
|--0-x-x-0--2h3p2--| x8
|--0-x-x-0--2h3p2--|
|--0-x-x-0--2h3p2--|



Verse             
[0:52]            (fifteens)                                 (last time)
|-----------------------------------------------------------|-----------|
|--444444-333333-151515151515--15\444444-333333-15--4/15\4--|-15b17-----|
|-----------------------------------------------------------|-----------|
|-----------------------------------------------------------|-----------| x4
|-----------------------------------------------------------|-----------|
|-----------------------------------------------------------|-------15\-|
*On the verse riff, pick the string as you slide

Chorus
[1:12]
|------------------|
|------------------|
|------------------| 
|--0-x-x-0--2h3p2--| x8
|--0-x-x-0--2h3p2--|
|--0-x-x-0--2h3p2--|

[1:22] Verse riff x1

[1:27]
|---------------------------------------------------------------------|
|---------------------------------------------------------------------|
|---------------------------------------------------------------------|
|---------------------------------------------------------------------| x3
|---------------------------------5---------------------------------3-|
|--0-x-x-0--1-1-1-1--0-x-x-0--0-1----0-x-x-0--1-1-1-1--0-x-x-0--0-1---|

[1:37] Add in the Verse riff x1

[1:42] Chorus x8

Insert
[1:52]                     (last time)
|----------------------------|-----|
|----------------------------|-----|
|----------------------------|-----|
|----------------------------|-1-0-| x8 
|----------------------------|-1-0-|
|--0-3-0-6-5-6-5-0-3-3-2-3---|-1-0-|

Bridge
[2:32]  (all 0s, 1s, 2s, and 3s)
|-------------------------------------|
|-------------------------------------|
|-------------------------------------|
|--1-0--------------------------------| x8
|--1-0--------------------------------|
|--1-0--012333210-0-0-3-0-0-0-111111--|
        |----P.M.----|   |---|

[2:52] Add in Verse Riff x4

[3:13] Chorus x16

[3:34] Insert x16

[4:14] Bridge x4

[4:34]
|-------|
|-------|
|-------|
|--1-0--|
|--1-0--|
|--1-0--|


_____________________________________________________________________________

Three Nil

Tuning: Drop B (low to high) B,F#,B,E,G#,C#

Keys
.=Palm Mute
b=Bend
t=Tremolo Picking
h=hammer-on
p=pulloff
\=slide up
/=slide down
*=Natural Harmonic

This song starts with a quick drum intro and then the guitars kick in.

Intro pt.1 - Both Gtr.
C#|----------------------------------|
G#|----------------------------------|
E |----------------------------------|
B |-1/9-0-3-2------------------------|  X8
F#|-1/9-0-3-2-2/-t5t0t6\1------------|
B |-1/9-0-3-2------------------------|

Intro pt.2 - Both Gtr.
C#|----------------------------------|
G#|----------------------------------|
E |----------------------------------|
B |-1/9-0-3-2-2/-t5t0t6\1------------|  X8
F#|-1/9-0-3-2------------------------|
B |-1/9-0-3-2------------------------|

Pre-Verse Riff - Both Gtr.

C#|------------------------------------------|
G#|------------------------------------------|
E |------------------------------------------|
B |------------------------------------------|  X8
F#|------------------------------------------|
B |-0-3\2-0-1b-0--0-3\2-0-1b-0-00-1b-0-------|
PM  .     .       .     .      ..

Gtr 1 Pre-Verse riff 2

C#|------------------------------------------|
G#|------------------------------------------|
E |------------------------------------------|
B |------------------------------------------|
F#|------------------------------------------|
B |-1\4h3p-h1p0p-0-3-6-3-0-4-7-4-0-3---------|

Gtr. 1 starts with Pre-Verse Riff 2 and then Gtr. 2 comes in and they both play 
Riff 3

Both Gtr. Pre-Verse Riff 3

C#|------------------------------------------|
G#|------------------------------------------|
E |------------------------------------------|
B |------------------------------------------|
F#|------------------------------------------|
B |-0-4-3-0-1-0-0-3-6-3-0-4-7-4-0-3----------|

Verse Riff

C#|------------------------------------------|
G#|------------------------------------------|
E |------------------------------------------|
B |------------------------------------------|
F#|-------------0-3-6-3-0-4-7-4-0-3----------|
B |-0-4/3-0-1p0-0-3-6-3-0-4-7-4-0-3----------|
PM  .     .     . . . . . . . . . .

Pre-Chorus Fill In

C#|-------------------------------------------------------------|
G#|-------------------------------------------------------------|
E |-------------------------------------------------------------|
B |-0-4-3-1-0----0-1-0--0-1-0-4-3-1-0--0-1-0-0--0-4-3-0---------|
F#|-0-4-3-1-0----0-1-0--0-1-0-4-3-1-0--0-1-0-0--0-4-3-0---------|
B |-0-4-3-1-0----0-1-0--0-1-0-4-3-1-0--0-1-0-0--0-4-3-0---------|

Im not sure about the last 4 chords of the Prechorus Fill In you cant hear the guitars that
well which sucks

The Pre-Chorus Fill In leads back into what is a variation of the Pre-Verse Riff

Pre-Verse Riff - Both Gtr.

C#|-------------------------------------------------------------|
G#|-------------------------------------------------------------|
E |-------------------------------------------------------------|
B |-------------------------------------------------------------|
F#|-------------------------------------------------------------|
B |-0-3\2-0-1b-0--0-3\2-0-1b-0-00-1b-0-0-3\2-0-1b-0-0-3\2-0-0---|
PM  .     .       .     .      ..      .     .      .     .

After the Pre-Verse Riff variation the guitars stop for a sec and then comes the 
Riff 2
which is described below

C#|-------------------------------------------------------------|
G#|-------------------------------------------------------------|
E |-------------------------------------------------------------|
B |-------------------------------------------------------------| X2
F#|---t2-t3-----t5-t6-t2----------------------------------------|
B |-t2-----t3-t5------------------------------------------------|

They do this twice and then the riff switches to this riff

C#|-------------------------------------------------------------|
G#|-------------------------------------------------------------|
E |-------------------------------------------------------------|
B |-------------------------------------------------------------| X2
F#|---t5-t6-----t8-t9-t5----------------------------------------|
B |-t5-----t6-t8------------------------------------------------|

Here its pretty much the same Riff except they are Palm Muted Chords

C#|-------------------------------------------------------------|
G#|-------------------------------------------------------------|
E |-------------------------------------------------------------|
B |---4-5-----7-8-4---------------------------------------------|
F#|-2-2-3-3-5-5-6-2---------------------------------------------| X2
B |-2-----3-5---------------------------------------------------|
PM  . . . . . . . .

C#|-------------------------------------------------------------|
G#|-------------------------------------------------------------|
E |-------------------------------------------------------------|
B |---7-8-----10-11-7-------------------------------------------|
F#|-5-5-6-6-8-8--9--5-------------------------------------------| X2
B |-5-----6-8---------------------------------------------------|
PM  . . . . . . . . .

And then it goes back to the Pre-Verse Riff

Pre-Verse Riff - Both Gtr.

C#|------------------------------------------|
G#|------------------------------------------|
E |------------------------------------------|
B |------------------------------------------|  X2
F#|------------------------------------------|
B |-0-3\2-0-1b-0--0-3\2-0-1b-0-00-1b-0-------|
PM  .     .       .     .      ..

After the Pre-Verse Riff they do this fill in

C#|-------------------------------------------------------|
G#|-------------------------------------------------------|
E |-------------------------------------------------------|
B |-------------------------------------------------------|
F#|----------------------------00--00--00-0-5-0-6/--------|
B |-0-3\2-0-1b-0--0-3\2-0-1b-0-00--00--00-0-5-0-6/--------|
PM  .     .       .     .      ..  ..  .. .   .

Verse Riff 2

C#|-------------------------------------------------------|
G#|-------------------------------------------------------|
E |-------------------------------------------------------|
B |-------------------------------------------------------|
F#|-1-4-3------0-4-3------0-------------------------------|
B |-1-4-3-1p-0-0-4-3-1p-0-0-1p-0--------------------------|
PM  . . .      . . .      .

End The Riff On these notes (which r the first two of Verse Riff 2)

C#|-------------------------------------------------------|
G#|-------------------------------------------------------|
E |-------------------------------------------------------|
B |-------------------------------------------------------|
F#|-1-4-3-------------------------------------------------|
B |-1-4-3-------------------------------------------------|
PM  . . .

then it goes back to the Pre-Chorus Riff

C#|-------------------------------------------------------------|
G#|-------------------------------------------------------------|
E |-------------------------------------------------------------|
B |-------------------------------------------------------------| X2
F#|---t2-t3-----t5-t6-t2----------------------------------------|
B |-t2-----t3-t5------------------------------------------------|

C#|-------------------------------------------------------------|
G#|-------------------------------------------------------------|
E |-------------------------------------------------------------|
B |-------------------------------------------------------------| X2
F#|---t5-t6-----t8-t9-t5----------------------------------------|
B |-t5-----t6-t8------------------------------------------------|

C#|-------------------------------------------------------------|
G#|-------------------------------------------------------------|
E |-------------------------------------------------------------|
B |---4-5-----7-8-4---------------------------------------------|
F#|-2-2-3-3-5-5-6-2---------------------------------------------| X2
B |-2-----3-5---------------------------------------------------|
PM  . . . . . . . .

C#|-------------------------------------------------------------|
G#|-------------------------------------------------------------|
E |-------------------------------------------------------------|
B |---7-8-----10-11-7-------------------------------------------|
F#|-5-5-6-6-8-8--9--5-------------------------------------------| X2
B |-5-----6-8---------------------------------------------------|
PM  . . . . . . . . .

And then finally it goes to the Chorus

Gtr 2

C#|-------------------------------------------------------------------------|
G#|-------------------------------------------------------------------------|
E |-------------------------------------------------------------------------|
B |-------------------------------------------------------------------------|
F#|-------------------------------------------------------------------------|
B |-10-0-0000000000-10-0-0000000000--2-3-3333333333\5-6-6666666666----------|

Gtr 1

C#|-------------------------------------------------------------------------|
G#|-------------------------------------------------------------------------|
E |-------------------------------------------------------------------------|
B |-------------------------------------------------------------------------|
F#|----------------------------------------------------------------3\*12----|
B |-10-0-0000000000-10-0-0000000000--2-3-3333333333\5-6-6666666666----------|

Gtr 2

C#|-------------------------------------------------------------------------|
G#|-------------------------------------------------------------------------|
E |-------------------------------------------------------------------------|
B |-------------------------------------------------------------------------|
F#|-------------------------------------------------------------------------|
B |-10-0-0000000000-10-0-0000000000--2-3-3333333333\5-6-6666666666----------|

Gtr 1

C#|-------------------------------------------------------------------------|
G#|-------------------------------------------------------------------------|
E |-----------5\777/55-----------5\777/55-----------------------------------|
B |-----------x\xxx/xx-----------x\xxx/xx-----------------------------------|
F#|-----------3\555/33-----------3\555/33------------------------------3\*12|
B |-10-0-0000----------10-0-0000----------2-3-3333333333\5-6-6666666666-----|

Breakdown

Gtr 2

C#|----------------------------------|
G#|----------------------------------|
E |----------------------------------|
B |-1/9-0----------------------------|
F#|-1/9-0----------------------------|
B |-1/9-0----------------------------|

Gtr 1

C#|----------------------------------|
G#|----------------------------------|
E |----------------------------------|
B |-1/9-0-3-2------------------------|
F#|-1/9-0-3-2-2/-t5t0t6\1------------|
B |-1/9-0-3-2------------------------|

After awhile both guitars play the Pre-Bridge, and then after a short fill in with the
bass and drums the Bridge Riff comes in

Bridge Riff

Both Gtr.

C#|----------------------------------|
G#|----------------------------------|
E |----------------------------------|
B |----------------------------------|
F#|-1-3-0-3-0-5-0-6------------------|
B |-1-3-0-3-0-5-0-6------------------|
PM  . . .   .   .

Bridge Riff 2

C#|----------------------------------|
G#|----------------------------------|
E |----------------------------------|
B |----------------------------------|
F#|-1\3-0-3-0-5-3-6------------------|
B |-1\3-0-3-0-5-3-6------------------|
PM         . . . .

C#|----------------------------------|
G#|----------------------------------|
E |---------777\8/666----------------|
B |---------xxx\x/xxx----------------|
F#|-1\3-0-3-555\6/444----------------|
B |-1\3-0-3--------------------------|
PM

Gtr 2

C#|-------------------------------------------------------------------------|
G#|-------------------------------------------------------------------------|
E |-------------------------------------------------------------------------|
B |-------------------------------------------------------------------------|
F#|-------------------------------------------------------------------------|
B |-10-0-0000000000-10-0-0000000000--2-3-3333333333\5-6-6666666666----------|

Gtr 1

C#|-------------------------------------------------------------------------|
G#|-------------------------------------------------------------------------|
E |-------------------------------------------------------------------------|
B |-------------------------------------------------------------------------|
F#|----------------------------------------------------------------3\*12----|
B |-10-0-0000000000-10-0-0000000000--2-3-3333333333\5-6-6666666666----------|

Gtr 2

C#|-------------------------------------------------------------------------|
G#|-------------------------------------------------------------------------|
E |-------------------------------------------------------------------------|
B |-------------------------------------------------------------------------|
F#|-------------------------------------------------------------------------|
B |-10-0-0000000000-10-0-0000000000--2-3-3333333333\5-6-6666666666----------|

Gtr 1

C#|-------------------------------------------------------------------------|
G#|-------------------------------------------------------------------------|
E |-----------5\777/55-----------5\777/55-----------------------------------|
B |-----------x\xxx/xx-----------x\xxx/xx-----------------------------------|
F#|-----------3\555/33-----------3\555/33------------------------------3\*12|
B |-10-0-0000----------10-0-0000----------2-3-3333333333\5-6-6666666666-----|


C#|-------------------------------------------------------------|
G#|-------------------------------------------------------------|
E |-------------------------------------------------------------|
B |-------------------------------------------------------------| X4
F#|---t2-t3-----t5-t6-t2----------------------------------------|
B |-t2-----t3-t5------------------------------------------------|

They change the Riff here....

C#|-------------------------------------------------------------|
G#|-------------------------------------------------------------|
E |-------------------------------------------------------------|
B |----t9-t10--------t7-8---------------------------------------| X4
F#|-t7--------t9-t10------t9------------------------------------|
B |-------------------------------------------------------------|

Outro Riff

C#|-------------------------------------------------------------|
G#|-------------------------------------------------------------|
E |-------------------------------------------------------------|
B |-------------------------------------------------------------|
F#|-1\3-0-3-1-5-3-6---------------------------------------------|
B |-1\3-0-3-1-5-3-6---------------------------------------------|
PM      . . . . .

C#|-------------------------------------------------------------|
G#|-------------------------------------------------------------|
E |-------------------------------------------------------------|
B |-------------------------------------------------------------|
F#|-1\3-0-3-1-5-3-5-6-------------------------------------------|
B |-1\3-0-3-1-5-3-5-6-------------------------------------------|
PM      . . . . . . .

End song on this

C#|-------------------------------------------------------------|
G#|-------------------------------------------------------------|
E |-------------------------------------------------------------|
B |-------------------------------------------------------------|
F#|-1\3-0-3-1-5-3-6---------------------------------------------|
B |-1\3-0-3-1-5-3-6---------------------------------------------|
PM      . . . . .


_____________________________________________________________________________

Duality


Tuning: Dropped B

Key:
/ = slide up
\ = slide down
. = Palm mute
* = pinch harmonic
b = bend
~ = hold note

Intro x4 (the first 2 times are real soft, last 2 are hard)
|---------------------------------------|
|---------------------------------------|
|---------------------------------------|
|---------------------------------------|
|---------------------------------------|
|--000000000000000033333333/66\11111111-|

Pre-verse x2
|---------------------------------------------------------------------|
|---------------------------------------------------------------------|
|-----------------------------3*b-------------------------------------|
|--0-0-0--0-0--0-0-0--0-0-1-3-------0-0-0--0-0--0-0-0--0-0-1-3--3*b---|
|--0-0-0--0-0--0-0-0--0-0-1-3-------0-0-0--0-0--0-0-0--0-0-1-3--------|
|--0-0-0--0-0--0-0-0--0-0-1-3-------0-0-0--0-0--0-0-0--0-0-1-3--------|
pm.........................         ........................

Verse(tremolo pick whole verse)x8
|------------------------------------------|
|------------------------------------------|
|------------------------------------------|
|------------------------------------------|
|------------------------------------------|
|--77777101010107777733333336666111111111--|
pm.........................................

Pre-chorus x1
|---------------------------------------|
|---------------------------------------|
|---------------------------------------|
|--3-3-33--3-3-3-33--3-3-3-33--3-3-3----|
|--3-3-33--3-3-3-33--3-3-3-33--3-3-3-3*-|
|--3-3-33--3-3-3-33--3-3-3-33--3-3-3----|
pm..................................
I push my fingers in to my...

Chorus(hold note is quick)x2
|-------------------------------------------|
|-------------------------------------------|
|-------------------------------------------|
|--0~000000000000000-3~333333-666-11111111--|
|--0~000000000000000-3~333333-666-11111111--|
|--0~000000000000000-3~333333-666-11111111--|
EYES....

Pre-verse 2 x1 tremolo pick
|----------------------------------------------------------------------|
|----------------------------------------------------------------------|
|----------------------------------------------------------------------|
|-------------------------------------------------------------3-5-1-0--|
|-------------------------------------------------------------3-5-1-0--|
|--777777101010107777733333336661111111111-777771010101077777-3-5-1-0--|
pm...........................................................
verse x4

Pre-chorus x1

Chorus x4

Chorus Guitar 2 on 3rd and 4th times
|----------------------------|
|----------------------------|
|----------------------------|
|---5-5--8-8--12-12-13/12b---|
|----------------------------|
|----------------------------|

Bridge x4
|---------------------------------------------------------------------|
|---------------------------------------------------------------------|
|---------------------------------------------------------------------|
|------------------------------3*b------------------------------------|
|--0-0-0--0-0--0-0-0--0-0-1-3-------0-0-0--0-0--0-0-0--0-0-1-3--3*b---|
|--0-0-0--0-0--0-0-0--0-0-1-3-------0-0-0--0-0--0-0-0--0-0-1-3--------|
|--0-0-0--0-0--0-0-0--0-0-1-3-------0-0-0--0-0--0-0-0--0-0-1-3--------|

Pre-chorus x1

Fill 1 (add this on the end of the prechorus)
|---------------------------------------|
|---------------------------------------|
|---------------------------------------|
|---------------------------------------|
|---------------------------------------|
|--77777101010107777733333336661111111--|

Chorus x4

Outro light palm muting
|---------------------------------------------------------------|
|---------------------------------------------------------------|
|------------------------------3*b------------------------------|
|--0-0-0--0000--0-0-0--0010--3------0-0-0--0000--0-0-0--0-0-1-0-|
|--0-0-0--0000--0-0-0--0010--3------0-0-0--0000--0-0-0--0-0-1-0-|
|--0-0-0--0000--0-0-0--0010--3------0-0-0--0000--0-0-0--0-0-1-0-|
pm..............................................................

with heavy palm muting
|---------------------------------------------------------------------------|
|---------------------------------------------------------------------------|
|------------------------------------------3*b------------------------------|
|-0-0-0-0---0-0-0--0000--0-0-0--0-0-1-0--3------0-0-0--0000--0-0-0--0-0-1-0-|
|-0-0-0-0---0-0-0--0000--0-0-0--0-0-1-0--3------0-0-0--0000--0-0-0--0-0-1-0-|
|-0-0-0-0---0-0-0--0000--0-0-0--0-0-1-0--3------0-0-0--0000--0-0-0--0-0-1-0-|
.......................................         ...........................

|-------|
|-------|
|-------|
|-3-3*b-
|-3-----|
|-3-----|

now with light palm muting again
|-------------------------------------------------------------------------|
|-------------------------------------------------------------------------|
|---------------------------------3*b-------------------------------------|
|--0-0-0--0000--0-0-0--0-0-1-0--3------0-0-0--0000--0-0-0--0-0-1-0-3-3*b--|
|--0-0-0--0000--0-0-0--0-0-1-0--3------0-0-0--0000--0-0-0--0-0-1-0-3------|
|--0-0-0--0000--0-0-0--0-0-1-0--3------0-0-0--0000--0-0-0--0-0-1-0-3------|
..............................         ...........................

song order:
intro x4
pre-verse x1
verse x8
pre-chorus x1
chorus x2
pre-verse2 x1
verse x4
pre-chorus x1
chorus x4
bridge x
pre-chorus x1
fill 1 x1
chorus x4
outro x1

NOTE:
for the bends following the pinch harmonics im not sure if they are bends or if he is 
the whammy bar. you can try it out both ways and just use the one that sounds best to you.

_____________________________________________________________________________

Opium of the People

Intro:

Gt.1
C#|------------|       
G#|------------|            
E |------------|           
B |------------|                
F#|------------|             
B |-/0-00-0-00-|      

Gt.2
C#|-------------------------|
G#|-10h11h10h11h10h11h10h11h|
E |-------------------------|
B |-------------------------|
F#|-------------------------|
B |-------------------------|     

Gt.1
C#|-------------------------|
G#|-------------------------|
E |-10h11h10h11h10h11h10h11h|
B |-------------------------|
F#|-------------------------|
B |-------------------------| 

Both
C#|---------------|       
G#|--/////-\\\\\--|            
E |-/////---\\\\\-|           
B |---------------|  (slide up & down)              
F#|---------------|             
B |---------------|

Intro 2:

Both
C#|-----------------------|       
G#|-----------------------|            
E |-----------------------|           
B |-----------------------|                
F#|-----------------------| X4            
B |-0-3-3-3-0--0-3-3-3-0--|
Pm    .....      .....

Gt.1
C#|-------------------------|
G#|-------------------------|
E |-10h11h10h11h10h11h10h11h|
B |-------------------------|
F#|-------------------------|
B |-------------------------|

Gt.2
C#|-------------------------|
G#|-10h11h10h11h10h11h10h11h|
E |-------------------------|
B |-------------------------|
F#|-------------------------|
B |-------------------------|     
      
Both
C#|---------------|       
G#|--/////-\\\\\--|            
E |-/////---\\\\\-|     (slide up & down)       
B |---------------|                
F#|---------------|             
B |---------------|

Pre-Verse

Both
C#|-----------------|     |--------|       
G#|-----------------|     |--------|            
E |-----------------|     |--------|           
B |-----------------|     |--------|                
F#|-0-4-0-1-0-4-0-0-| X4  |--------|             
B |-0-4-0-1-0-4-0-0-|     |-3-5-7b-|

Verse

Both
C#|-----------------|       
G#|-----------------|            
E |-----------------|           
B |-----------------|                
F#|-7-7-5-5-3-3-9-9-| X8            
B |-7-7-5-5-3-3-9-9-|
Pm .................

Both
C#|-----------------|     |--------|       
G#|-----------------|     |--------|            
E |-----------------|     |--------|           
B |-----------------|     |--------|                
F#|-0-4-0-1-0-4-0-0-| X4  |--------|             
B |-0-4-0-1-0-4-0-0-|     |-3-5-7b-|

Verse 2:

Both
C#|-----------------|       
G#|-----------------|            
E |-----------------|           
B |-----------------|                
F#|-------------7-7-|  X4         
B |-7-7-5-5-3-3-----|
Pm .................

Both
C#|-----------------|       
G#|-----------------|            
E |-----------------|           
B |-------------7---|                
F#|-7-7-5-5-3-3-7---|   X4        
B |-7-7-5-5-3-3-----|

Chorus:

Both                         Gt. 2
C#|-----------------|        |--------------------|
G#|-----------------|        |--------------------|
E |-----------------|        |--------------------|
B |-----------------|        |--------------------|
F#|-3-3-5-5-7-7-5-5-| X2     |-15/16-13-13-12h13~-|
B |-3-3-5-5-7-7-5-5-|        |--------------------|
Pm          ...

Both
C#|--------------------|       
G#|--------------------|            
E |--------------------|           
B |--------------------|                
F#|-0-3-1-0--0-0-3-1-0-|  X2        
B |-0-3-1-0--0-0-3-1-0-|

Introdule:

Gt.1
C#|-------------------------|
G#|-------------------------|
E |-10h11h10h11h10h11h10h11h|
B |-------------------------|
F#|-------------------------|
B |-------------------------|

Gt.2
C#|-------------------------|
G#|-10h11h10h11h10h11h10h11h|
E |-------------------------|
B |-------------------------|
F#|-------------------------|
B |-------------------------| 

Both
C#|---------------|       
G#|--/////-\\\\\--|            
E |-/////---\\\\\-|           
B |---------------|      (slide up & down)           
F#|---------------|             
B |---------------|

Gt.1
C#|---------------------|
G#|---------------------|
E |-7h8h7h8h7h8h7h8h7h8h|
B |---------------------|
F#|---------------------|
B |---------------------|

Gt.2
C#|---------------------|
G#|-7h8h7h8h7h8h7h8h7h8h|
E |---------------------|
B |---------------------|
F#|---------------------|
B |---------------------| 

Both
C#|---------------|       
G#|--/////-\\\\\--|            
E |-/////---\\\\\-|           
B |---------------|     (slide up & down)            
F#|---------------|             
B |---------------|

Gt.1
C#|-------------------------|
G#|-------------------------|
E |-10h11h10h11h10h11h10h11h|
B |-------------------------|
F#|-------------------------|
B |-------------------------|

Gt.2
C#|-------------------------|
G#|-10h11h10h11h10h11h10h11h|
E |-------------------------|
B |-------------------------|
F#|-------------------------|
B |-------------------------| 

Gt.1
C#|--------------|
G#|--------------|
E |--------------|
B |--------------|
F#|-00-0-00-0-00-|  Couple of Times
B |-00-0-00-0-00-| 

Verse 3:

Both
C#|---------------------|
G#|---------------------|
E |---------------------|
B |---------------------|
F#|-00-0-00-0-00-0-00-0-|  Couple of Times
B |-00-0-00-0-00-0-00-0-|

Chorus:

Both                         Gt. 2
C#|-----------------|        |--------------------|
G#|-----------------|        |--------------------|
E |-----------------|        |--------------------|
B |-----------------|        |--------------------|
F#|-3-3-5-5-7-7-5-5-|  X2    |-15/16-13-13-12h13~-|
B |-3-3-5-5-7-7-5-5-|        |--------------------|
Pm          ...

Both                         Gt. 2
C#|-----------------|        |----------------|
G#|-----------------|        |----------------|
E |-----------------|        |----------------|
B |-----------------|        |----------------|
F#|-3-3-5-5-7-7-5-5-|  X2    |-13/14/15/16/17-|
B |-3-3-5-5-7-7-5-5-|        |----------------|
Pm          ...

Both                         Gt. 2
C#|-----------------|        |------|
G#|-----------------|        |------|
E |-----------------|        |------|
B |-----------------|        |------|
F#|-3-3-5-5-7-7-5-5-|  X2    |-/13--|
B |-3-3-5-5-7-7-5-5-|        |------|
Pm          ...

Both                         Gt. 2
C#|-----------------|        |----------------|
G#|-----------------|        |----------------|
E |-----------------|        |----------------|
B |-----------------|        |----------------|
F#|-3-3-5-5-7-7-5-5-|  X2    |-13/14/15/16/17-|
B |-3-3-5-5-7-7-5-5-|        |----------------|
Pm          ...

Outro:

Both
C#|---------------------|
G#|---------------------|
E |---------------------|
B |---------------------|
F#|-00-0-00-0-00-0-00-0-| Rest of the Song
B |-00-0-00-0-00-0-00-0-|

_____________________________________________________________________________


Circle



Tuning: Standard


Chords Used

  E5 D5  D5/C# C  G5 E5/C#  E5/D E5/B
--0---0---0----0--0----0------0---0--
--0---0---0----1--0----0------0---0--
--9---7---7----0--0----9------9---9--
--9---7---7----2--5----9------9---9--
--7---5---4----3--5----0------0---0--
------------------3----9------10--7--

For the intro and verse you could in theory attempt to play the bass 
guitar fills with your thumb

They mainly work around these notes

---------------------
---------------------
-7-----------------7-
---10-8-7-5-7-8-10---

"Circle"

E5
Give me the dust of my father 
Stand on the face of the ancients
Bare the secret flesh of time itself 

Follow me (Follow me) 
I've come so far behind again 
Follow me (Follow me) 
Wish so hard I'm there again 
Follow me (Follow me) 
Follow me (Follow me) 

D5          D5/C#       C            E5
All that I wanted the dreams I had before 
D5          D5/C#       C            E5
All that I needed I've never needed more 
D5          D5/C#       C            E5
All of my questions are answers to my sins 
D5          D5/C#       C            E5
All of my endings waiting to begin 

E5
I know the way that I faulter 
Can't be afraid of my patience 
There's a sacred place where Razel keeps safe 

Follow me (Follow me) 
I've seen so much I'm behind again 
Follow me (Follow me) 
I feel so bad I'm alive again 
Follow me (Follow me) 

D5          D5/C#       C            E5
All that I wanted the dreams I had before 
D5          D5/C#       C            E5
All that I needed I've never needed more 
D5          D5/C#       C            E5
All of my questions are answers to my sins 
D5          D5/C#       C            E5
All of my endings waiting to begin 

Outro

E5    E5/C# E5/D x2

c   G5   E5 E5/D E5/C# E5/B Repeat to fade

That's it, it's pretty easy really.


_____________________________________________________________________________

Vermilion 


B,F#,B,E,G#,C#
                                      Some delay or something
C# |------------------15------14---------------------|
G# |-----12----14------------------------------------|
E  |-------------------------------------------------|(intro)
B  |-------------------------------------------------| 
F# |-------------------------------------------------|
B  |-------------------------------------------------|

C# |-------------------------------------------------|
G# |-------------------------------------------------|
E  |-------------------------------------------------| (verse/intro)
B  |-2-x--2-x--3-x--3--------------------------------|
F# |-0-x--3-x--5-x--2--------------------------------|
B  |-------------------------------------------------|

                 Or try this other verse

C# |-------------------------------------------------|
G# |-------------------------------------------------| ( alternate )
E  |--------x-7-x-6----------------------------------| (verse/into )
B  |--4-x-6-x-5-x-4----------------------------------|
F# |--2-x-4------------------------------------------|
B  |-------------------------------------------------|


(mick or jim is playing this after the end of the verse)
C# |-------------------------------------------------|
G# |-------------------------------------------------|
E  |-------------------------------------------------|
B  |-------------------------------------------------|
F# |-----5/8-8-8\3-3-3-3-3---------------------------|
B  |-------------------------------------------------|


C# |-------------------------------------------------|
G# |-------------------------------------------------|
E  |-------------------------------------------------|
B  |--------3-3----5-5—7-7---------------------------|
F# |---5-5-------------------------------------------|
B  |-------------------------------------------------|

            |--------------P.M---------------------|
C# |-------------------------------------------------|
G# |-------------------------------------------------|
E  |-------------------------------------------------| (when he says OH')
B  |--10-----0-0-0-0--1-1-1--0-0-0--6-6-6--5-5-5-5---|    (pre-chorus1)
F# |--10-----0-0-0-0--1-1-1--0-0-0--6-6-6--5-5-5-5---|
B  |--10-----0-0-0-0—-1-1-1--0-0-0--6-6-6--5-5-5-5---|

             P.M            P.M         P.M  
C# |-------------------------------------------------|
G# |-------------------------------------------------|
E  |-------------------------------------------------|
B  |--13p12---------13p12-0-0-0-0-4p3-0-0-0-0-8p7----|
F# |--13p12-0-0-0-0-13p12-0-0-0-0-4p3-0-0-0-0-8p7----|      (pre-chorus2)
B  |--13p12-0-0-0-0-13p12-0-0-0-0-4p3-0-0-0-0-8p7----|


C# |----------------------------------|
G# |----------------------------------|
E  |----------------------------------|  (chorus)
B  |--8-------7------0----------------|
F# |--8-------7------0----------------|
B  |--8-------7------0----------------|

         (played behind chorus)
C# |---------------------------------------|
G# |---------------------------------------|
E  |--14--12--7------14--12--7--10---------|
B  |---------------------------------------|
F# |--12--10--5------12--10--5--8----------|
B  |---------------------------------------|
               
C# |-------------------------------------------------|
G# |-------------------------------------------------|
E  |-------------------------------------------------|
B  |--13p12---------13p12-0-0-0-0--------------------|(hard to say what caught my attention)
F# |--13p12-0-0-0-0-13p12-0-0-0-0--------------------|      (interlude)
B  |--13p12-0-0-0-0-13p12-0-0-0-0--------------------|

  (the outro part when he's saying she isn't real)
C# |---------------------------------------|
G# |---------------------------------------|
E  |---------------------------------------|
B  |--0----8---7---5-----------------------|
F# |--0----8---7---5-----------------------|
B  |--0----8---7---5-----------------------|

             (played behind the outro)
C# |---------------------------------------------|
G# |---------------------------------------------|
E  |--14--15--14--12----14--15--14--12--10-------|
B  |---------------------------------------------|
F# |--12--13--12--10----12--13--12--10--8--------|
B  |---------------------------------------------|



Intro
Verse x8
Pre-chorus1 x4
Verse x4
Pre-chorus1 x4
Pre-chorus2 x4
Chorus x4
Interlude x like 20 times (solo in background and I don't know it)
Interlude x 8
Chorus x 8
Outro x like 4 or 6 I'm not sure

_____________________________________________________________________________

Pulse of the Maggots

~ - Vibrato
. - Tremolo Pick
/ - Slide
p - Pull off
x - Palm Mute
ph. - Pinch Harmonic

Tuning: B F# B E G# C# (Drop-B)

INTRO
----------------------------------------------------------------------------|
----------------------------------------------------------------------------|
----------------------------------------------------------------------------|
----------------------------------------------------------------------------|
----------------------------------------------------------------------------|
-0---0---------------0---1-1-1-1-0---0---0---3///////////13~~~~~------------|
 x   x               x   x x x x x   x   x

----------------------------------------------------------------------------|
----------------------------------------------------------------------------|
----------------------------------------------------------------------------|
----------------------------------------------------------------------------|
----------------------------------------------------------------------------|
-0---0---------------0---1-1-1-1-0---0---0---3///////////13p-12-------------|
 x   x               x   x x x x x   x   x

----------------------------------------------------------------------------|
----------------------------------------------------------------------------|
-----------------------------------------------------------------3-----4--5-|
-----------------------------------------------------------------3-----4--5-|
-13p-12--13p-12--13p-12--13p-12--13p-12--13p-12--13p-12--13------1-----2--3-|
----------------------------------------------------------------------------|
                                                                 x     x     x

----------------------------------------------------------------------------|
----------------------------------------------------------------------------|
----------------------------------------------------------------------------|
-------------------------3-----3-----3-----4-----3-----1--------------------|
-1-1-1---3-3-3---4-4-4---3-----3-----3-----4-----3-----1--------------------|
-------------------------3-----3-----3-----4-----3-----1--------------------|
 x x x   x x x   x x x   x     x     x     x     x     x

VERSE
----------------------------------------------------------------------------|
----------------------------------------------------------------------------|
----------------------------------------------------------------------------|
-----------------------------------------------------0---1---3---4---3--1-0-|
-----------------------------------------------------0---1---3---4---3--1-0-|
-0---0---------------0---1-1-1-1-0---0---------------0---1---3---4---3--1-0-|
 x   x               x   x x x x x   x

----------------------------------------------------------------------------|
----------------------------------------------------------------------------|
----------------------------------------------------------------------------|
----------------------------------------------------------------------------|
----------------------------------------------------------------------------|
-----0---1-1-1-1-0---0---0---3///////////13---------------------------------|
     x   x x x x x   x   x

----------------------------------------------------------------------------|
----------------------------------------------------------------------------|
----------------------------------------------------------------------------|
-----------------------------------------------------0---1---3---4---3--1-0-|
-----------------------------------------------------0---1---3---4---3--1-0-|
-0---0---------------0---1-1-1-1-0---0---------------0---1---3---4---3--1-0-|
 x   x               x   x x x x x   x

----------------------------------------------------------------------------|
----------------------------------------------------------------------------|
----------------------------------------------------------------------------|
----------------------------------------------------------------------------|
----------------------------------------------------------------------------|
-----0---1-1-1-1-0---0---0---3///////////13p-12-----------------------------|
     x   x x x x x   x   x

CHORUS
----------------------------------------------------------------------------|
----------------------------------------------------------------------------|
----------------------------------------------------------------------------|
-6-----------5-------6---3-----------3-----------1---0----------------------|
-6-----------5-------6---3-----------3-----------1---0----------------------|
-6-----------5-------6---3-------5---3-------0---1p--0----------------------|
                                 x           x

REFRAIN
Right Guitar
----------------------------------------------------------------------------|
----------------------------------------------------------------------------|
----------------------------------------------------------------------------|
----------------------------------------------------------------------------|
---------3-----------2-------3---0-------2---0------------------------------|
-------------------------------------------------4-------1p--0--------------|
         ................................................

Left Guitar
----------------------------------------------------------------------------|
----------------------------------------------------------------------------|
---------10----------9-------10--7-------9---7------------------------------|
-------------------------------------------------9--------------------------|
----------------------------------------------------------------------------|
----------------------------------------------------------------------------|
         ..............................................

SOLO BACKING
---------------------------------------------------------------------------|
---------------------------------------------------------------------------|
-3---5---3---6-------------------------------------------------------------|
-2---4---2---5-------------------------------------------------------------|
-1///3\\\1///4-------4---4---4---4---4---4---4---4---4---4---4-------------|
---------------------------------------------------------------------------|
                     x   x   x   x   x   x   x   x   x   x   x

---------------------------------------------------------------------------|
---------------------------------------------------------------------------|
-3---5---3---6-------------------------------3-----------------------------|
-2---4---2---5---------------0---------------2-----------------------------|
-1///3\\\1///4-------4---4---0---------------1-------1---1---1-------------|
-----------------------------0-------0---0---------------------------------|
                     x   x           x   x           x   x   x

----------------------------------------------------------------------------|
----------------------------------------------------------------------------|
-3---5---3---6---6-------6-------6-------6-------6-------6------------------|
-2---4---2---5-------5-------5-------5-------5-------5-------5--------------|
-1///3\\\1///4--------------------------------------------------------------|
----------------------------------------------------------------------------|

---------------------------------------------------------------------------|
---------------------------------------------5~~~~~~~~~~~~~~~~~~~----------|
-3---5---3---6-------------------------------3~~~~~~~~~~~~~~~~~~~----------|
-2---4---2---5---------------0---------------------------------------------|
-1///3\\\1///4-------4---4---0---------------------------------------------|
-----------------------------0-------0---0---------------------------------|
                     x   x           x   x

POST SOLO
----------------------------------------------------------------------------|
----------------------------------------------------------------------------|
----------------------------------------------------------------------------|
-----1-----------------------------------------------1-------3-------4------|
-----1-----------------------------------------------1-------3-------4------|
-0---1---0---3~~~~~~-----0---0---0---0---3~~~~~~-----1-------3-------4------|
 x       x   ph.         x   x   x   x   ph.

_____________________________________________________________________________

Before I Forget

 
Tuning: (B,F#,B,E,G#,C#)

Intro
|---------------------------------------------------------------------------|
|---------------------------------------------------------------------------|
|---------------------------------------------------------------------------|
|---------------------------------------------------------------------------|
|---------------------------------------------------------------------------|
|-3h2p0-3h2p0-3h2p0-3h2p0-3-2-----3h2p0-3h2p0-3h2p0-3h2p0--5-3-2--3x--------|


|---------------------------------------------------------------------------|
|---------------------------------------------------------------------------|
|---------------------------------------------------------------------------|
|---------------------------------------------------------------------------|
|---------------------------------------------------5-5--5-0-5-5--5-0-------|
|-3h2p0-3h2p0-3h2p0-3h2p0-3-2-------3h2p0-3h2p0-3h2-5-5--5-0-5-5--5-0---2x--|

Verse
|---------------------------------------------------------------------------|
|---------------------------------------------------------------------------|
|---------------------------------------------------------------------------|
|---------------------------------------------------------------------------|
|--2-2-2-2-3--2-2-2-3-----2-2-2-2-3---5-5-5-0-------------------------------|
|--2-2-2-2-3--2-2-2-3--3x-2-2-2-2-3---5-5-5-0----3x-------------------------|
pm * * * *    * * *       * * * *

Pre-Chorus
1st guitar
|---------------------------------------------------------------------------|
|---------------------------------------------------------------------------|
|---------------------------------------------------------------------------|
|-2-5-4-3-------------------------------------------------------------------|
|---------------------------------------------------------------------------|
|---------------------------------------------------------------------------|

2nd Guitar
|-------------15/16~~-------------9/10~~-------------15/16~~----------------|
|---------------------------------------------------------------------------|
|---------------------------------------------------------------------------|
|---------------------------------------------------------------------------|
|--2-2--2-2------------2-2--2-2------------2-2--2-2-------------------------|
|--2-2--2-2------------2-2--2-2------------2-2--2-2-------------------------|
pm * *  * *            * *  * *            * *  * *

Chorus
|---------------------------------------------------------------------------|
|---------------------------------------------------------------------------|
|---------------------------------------------------------------------------|
|-2--0-2-5-00-5-0-8h7---------7-7-7h9p7-10-5-5-5-5-10h9p--------------------|
|-2--0-2-5-00-5-0-8h7---------7-7-7h9p7-10-5-5-5-5-10h9p--------------------|
|-2--0-2-5-00-5-0-8h7---3x----7-7-7h9p7-10-5-5-5-5-10h9p-----2x-------------|

(second part of intro)
Verse
Chorus 2x

Interlude (10 not 1,0)
|---------------------------------------------------------------------------|
|---------------------------------------------------------------------------|
|---------------------------------------------------------------------------|
|---------------------------------------------------------------------------|
|9-101010101010--9-101010101010--9-101010101010-9-10-12-10-2x---------------|
|---------------------------------------------------------------------------|

|---------------------------------------------------------------------------|
|---------------------------------------------------------------------------|
|---------------------------------------------------------------------------|
|-12-10-9-7-10-9-7----------------------------------------------------------|
|------------------10--9-101010101010--9-9-10-10-12-10----------------------|
|---------------------------------------------------------------------------|

|---------------------------------------------------------------------------|
|---------------------------------------------------------------------------|
|---------------------------------------------------------------------------|
|---------------------------------------------------------------------------|
|9-101010101010--9-101010101010--9-101010101010--12-10-9-12/----------------|
|---------------------------------------------------------------------------|

1st Guitar
|---------------------------------------------------------------------------|
|---------------------------------------------------------------------------|
|---------------------------------------------------------------------------|
|7h9p-7h9p-7h9p/10h9p-7h9p--12x--10-9-10-9-7x-12-10-9-10--------------------|
|---------------------------------------------------------------------------|
|---------------------------------------------------------------------------|

2nd Guitar
|-------------------------------------------------------------------------|
|-------------------------------------------------------------------------|
|----------------------------4-4-4-/5-5-5---------------------------------|
|-3-333333-5-000000-2-222222-4-4-4-/5-5-5--3-333333-5-000000-2-222222-5-0-|3x
|-3-333333-5-000000-2-222222-2-2-2-/3-3-3--3-333333-5-000000-2-222222-5-0-|3x
|-3-333333-5-000000-2-222222---------------3-333333-5-000000-2-222222-5-0-|3x
pm  ******   ******   ******                 ******   ******   ******
Chorus 2x

Then after the 2 chorus's do the first part of the intro twice and the the last to

"SLiPkNoT RoCks"

| /  slide up
| \  slide down
| h  hammer-on
| p  pull-off
| ~  vibrato
| +  harmonic
| x  Mute note
_____________________________________________________________________________


Vermilion Part 2


Dropped D-Tuning (D-A-D-G-B-E)
Intro = Verse:
   G#-Riff		    B-riff
E--------------------I--------------------|
B--------------------I--------------------|
G--------------------I--------------------|
D--6--8--6--6-6-6-6-6I--9-9-9-9-9-9-9-9-9-|
A--6--6--7--6-6-7-6-7I--9-9-9-9-9-9-9-9-9-|
D--6--6--6--6-6-6-6-6I--9-9-9-9h8-8-8-8-8-|

G#Riff				B-Riff
She seemed dressed and not all of me
 				G#Riff
Stretched across my shame,
				B-RIFF
All the torment and the pain

Leaked through and covered me.
G#Riff				B-RIFF
I'd do anything to have her to myself,
				G#Riff
Just to have her for myself.
			   B-
I don't know what to do,
				A			B
I don't know what to do when she makes me sad.
G#Riff		    B-RIFF
She is everything to me,
			G#Riff
The unrequited dream,
			    B-RIFF
It's all the know one things

The unattainable.
G#Riff				     B-RIFF
She's a myth that I have to believe in,
						G#Riff
All I need to make it real is one more reason.

			   B
I don't know what to do,
				A			B
I don't know what to do when she makes me sad.
	G	           F#   		        Bm     F#
But I won't let this build up inside of me.
G			F#		Bm	 F#
I won't let this build up inside of me.
G			F#		Bm	 F#
I won't let this build up inside of me.
G			F#		B-RIFF	 F#			G	      B
I won't let this build up inside of me.

G			F#
A catch in my throat, choke,
Bm	         F#        G      F#
Torn into pieces, I won't. No.
Bm			F#
I don't want to be this but


I won't let this build up inside of me. 4X
(won't let this build up inside of me)

Outro=Verse

She isn't real.
I can't make her real.
She isn't real.
I can't make her real.


Chords
    G#	  B    A    G	 F#   Bm
E-----------------------------2----|
B-----------------------------3----|
G-----------------------------4----|
D-6-------9----7----5----4----4----|
A-6-------9----7----5----4----2----|
D-6-------9----7----5----4---------|

__________________________________________________________________________


The Nameless 


 KEY:  PM=palm mute
                (x)=not always played
                  h=hammer-on
                  p=pull-off
                [x]=hamer-on while volume is turned down, turn volume up while vibrato to cause
                    feedback (this note particular will be a low hum)
                  /=slide

     Riff 1 (Intro/Verse 1/):
    C#|-----------------------|------------------------------|
    G#|-----------------------|------------------------------|
    E |-----------------------|------------------------------|
    B |22--3333-22-00--222222-|-22--3333-22-1111111111111111-|
    F#|22--3333-22-00--222222-|-22--3333-22-1111111111111111-|
    B |22--3333-22-00--222222-|-22--3333-22-1111111111111111-|
     PM - -  - - - - - - - -  - - - - - - - - - - - - - - - -

     Riff 2:
    C#|---------------------------------|
    G#|---------------------------------|
    E |-4-------------------------------|
    B |-4-3-0-2-0-0-0-0-0-0-6-5-6-5-(3)-|
    F#|-2-3-0-2-0-0-0-0-0-0-6-5-6-5-(3)-|
    B |---3-0-2-0-0-0-0-0-0-6-5-6-5-(3)-|
     PM         - - - - - -

     Riff 3:
    C#|---------------------------------------------------------------------|
    G#|---------------------------------------------------------------------|
    E |-4-------------------------------------4---------4-2-----------------|
    B |-4-------------------------------------4-3-0-2-0-4-2-3-2-0-2-0-2-3-2-|
    F#|-2-1h2p1-2h3p2-3h4p3-4h5p4-3h4p3-4h5p4-2-3-0-2-0-2-0-3-2-0-2-0-2-3-2-|
    B |-----------------------------------------3-0-2-0-----3-2-0-2-0-2-3-2-|

     Verse 1 is Riff 1 played at a different rhythm. Just listen to the record.

     Riff 4: (Chorus Pt. 1)
    C#|-----------------------------------------------------------------|
    G#|-----------------------------------------------------------------|
    E |--10--10--10--10--10--10--10--10--10--10--10--10--10--10--10--10-|
    B |8---8---8---8---8---8---8---8---7---7---7---7---7---7---7---7----|
    F#|-----------------------------------------------------------------|
    B |-----------------------------------------------------------------|

     Riff 5: (Chorus Pt. 2)
    C#|---------------------------------------------------------------|
    G#|---------------------------------------------------------------|
    E |---10---10---10---10---10---10---10---10---10---10---10---10-8-|
    B |-8----8----8----8----8----8----8----8----7----7----7----7----6-|
    F#|---------------------------------------------------------------|
    B |---------------------------------------------------------------|

     Riff 6 (Pre-Verse 2):
    C#|-----------------------------------|
    G#|-----------------------------------|
    E |-----------------------------------|
    B |-2-2--3-3-3-3-2-2-0-0--2-2-2-2-2-2-|
    F#|-2-2--3-3-3-3-2-2-0-0--2-2-2-2-2-2-|
    B |-2-2--3-3-3-3-2-2-0-0--2-2-2-2-2-2-|
     PM - -  - - - - - - - -  - - - - - -

     Riff 7 (Verse 2):
    C#|---------------------|-----------------------------------------------|
    G#|---------------------|-----------------------------------------------|
    E |---------------------|-----------------------------------------------|
    B |00-1111-00-00-000000-|-0-0-1-1-1-1-0-0--0-0--1-1-1-1-1-1-1-1-1-1-1-1-|
    F#|00-1111-00-00-000000-|-0-0-1-1-1-1-0-0--0-0--1-1-1-1-1-1-1-1-1-1-1-1-|
    B |00-1111-00-00-000000-|-0-0-1-1-1-1-0-0--0-0--1-1-1-1-1-1-1-1-1-1-1-1-|
     PM - - - - - - - -  - -  - - - - - -   - - - - - - - -  - -  - - - - - -

     Riff 8 (Breakdown; Keyboard Part):
    C#|-------------------------19-19-19-18-18-18-18-18-|
    G#|-16-16-16-16-16-16-16-16-------------------------|
    E |-------------------------------------------------|
    B |-------------------------------------------------|
    F#|-------------------------------------------------|
    B |-------------------------------------------------|

    Riff 9:    (Palm mute after first few times)
    C#|------|----------------------------|-----------------------------|
    G#|------|----------------------------|-----------------------------|
    E |------|4----------4-----------45---|4-----------4-----------4----|
    B |----/1|4302-0h2p0-4-302-0h2p0-45-32|4-302-0h2p0-4-302-0h2p0-4-532|
    F#|----/1|2302-0h2p0-2-302-0h2p0-23-32|2-302-0h2p0-2-302-0h2p0-2-532|
    B |[13]/1|-302-0h2p0---302-0h2p0----32|--302-0h2p0---302-0h2p0---532|

     Riff 10:
    C#|---------------------------|
    G#|---------------------------|
    E |-4-------6-----------------|
    B |-4-3-2-3-6-3-2-3--0--0--0--|
    F#|-2-3-2-3-4-3-2-3--0--0--0--|
    B |---3-2-3---3-2-3--0--0--0--|
     PM                  -  -  -

     Riff 2:
    C#|------------------------|------------------------------------------
    G#|------------------------|------------------------------------------|
    E |------------------------|------------------------------------------|
    B |-0--3--0--8--7--0--3--6-|-0--3--0--88888888--7--0--3--6(6666666)---|
    F#|-0--3--0--8--7--0--3--6-|-0--3--0--88888888--7--0--3--6(6666666)---|
    B |-0--3--0--8--7--0--3--6-|-0--3--0--88888888--7--0--3--6(6666666)---|
     PM                                                --------              - -------


____________________________________________________________________________


The Virus Of Life 


Tuning: B Gb B E Ab Db (Drop B)

Verse:
Db--------------------------------------------------------------------------|
Ab--------------------------------------------------------------------------|
E---------------------------------------------------------------------------|
B---------------------------------------------------------------------------|
Gb--------------------------------------------------------------------------|
B-111-1-1-1-1-1-1-1-1-1-1-1-1-1-1-333-0-0-0-0-0-0-0-0-0-0-0-0-0-0-----------|
   xxx x x x x x x x x x x x x x x xxx x x x x x x x x x x x x x x
Repeat this as many times needed.

Db--------------------------------------------------------------------------|
Ab--------------------------------------------------------------------------|
E---------------------------------------------------------------------------|
B-2-------------3b---2-------------3b---2-------------3b---2-------------3b-|
Gb2-1-0-5^--1-0-3b---2-1-0-3^--1-0-3b---2-1-0-----1-0-3b---2-1-0-----1-0-3b-|
B-2-1-0-----1-0-3b---2-1-0-----1-0-3b---2-1-0-5^--1-0-3b---2-1-0-3^--1-0-3b-|
     x x     x x        x x     x x        x x     x x        x x     x x

Chorus:
Db--------------------------------------------------------------------------|
Ab--------------------------------------------------------------------------|
E---------------------------7-6-5-------------------------------------------|
B-0-2-1-0-3-3-0-4-4-5-1-1-1-x-x-x-------------------------------------------|
Gb0-2-1-0-3-3-0-4-4-5-1-1-1-5-4-3-------------------------------------------|
B-0-2-1-0-3-3-0-4-4-5-1-1-1-------------------------------------------------|

During one of the verses there's that high pitch sound that i think sid plays but you 
play it on the guitar like this. Constantly hit the string.

Db-11----------------12-----------------10-----------------------------------
Ab---------------------------------------------------------------------------
E----------------------------------------------------------------------------
B----------------------------------------------------------------------------
Gb---------------------------------------------------------------------------
B----------------------------------------------------------------------------
   .................. .................. .....................
This is not the right number of times to hit the string.

^:Bend
-x-:Muted string
x:Palm muted string

____________________________________________________________________________

Thanks To:

Xavieres - Predule 3.0
ApexGT - The Blister Exists
PLOP - Three Nil
Matt Tompkins - Duality
Daniel Luengas - Opium Of The People 
James Doyle - Circle
Adam Wolf - Pulse Of The Maggots
Mudknotmetalhed - Before I Forget

Note: if ypur name is not here and it should be e-mail me at dblink182col@hotmail.com.
comments
print report bad tab
18 comments total. Showing first comments.
+4 reply
slipsoad928 wrote on September 16 2004, 12:00 am

i did the same thing with all the yellowcard tabs and everyone bitched at me, i mean we did them a favor. its easier this way, you dont have to jump from tab to tab. good job putting the songs together.

-1 reply
grasstain wrote on February 9 2005, 12:00 am

dont do that get the right tabs not what other idiots think are right cause duality is ***in wrong

+1 reply
grasstain wrote on February 9 2005, 12:00 am

u can do that just get the completly right ones

I want to post or [tab]
guest
You may want to rate the tab now too:
select rating
Please do not post tabs as comments. Select "correction" instead!