Oops, an error
Loading. Please wait.

Trophy Room Tab

711 views 12 this week
1 commentread comment
1 2 3 4 5
excellent!
x 1
Autoscroll
+/-
esc
set tempo
stop
Contributor
Hey! There's an official Ultimate Guitar app which is ideal
for learning songs when you're away from computer. Get the app
WARNING: You are trying to view
                                    content from Ultimate-Guitar.com
                                    in an unauthorized application,
                                    which is prohibited.

                                    Please use an official Ultimate
                                    Guitar Tabs application for iPhone,
                                    iPad or Android to access legitimate
                                    chords, guitar, bass, and drum tabs
                                    from Ultimate-Guitar.com database.

                                    Type "ultimate guitar tabs" in Apple
                                    App Store's or Android Market's
                                    search to find the application.
Capo on 2nd fret (all chords shown relative to capo):

Intro:

It's either this

     G                G             G         G

e---------------------3-------------3---------3---|
B----3---3---3---3----3-------------3---------3---|
G---0---0---0---0-----0-------------0---------0---|
D---------------------0-------------0---------0---|
A--2---0--s3---2----- 2---0h2-0h2-3-2--0h2----2---|
E---------------------3-------------3-----0h3-3---|

or this (both sounds nice):

     G                G             G         G

e---------------------3-------------3---------3---|
B---------------------3-------------3---------3---|
G----0---0---0---0----0-------------0---------0---|
D---0---0---0---0-----0-------------0---------0---|
A--2---0--s3---2----- 2---0h2-0h2-3-2--0h2----2---|
E---------------------3-------------3-----0h3-3---|



The strumming pattern is quite folk basic, in the song, the guitarist keeps randomly 
hammering the G chord on the E and A string.


Verse: (Keep randomly hammering those bass notes)

   G                G

e--3-------------3---------3---|
B--3-------------3---------3---|
G--0-------------0---------0---|
D--0-------------0---------0---|
A--2---0h2-0h2-3-2--0h2----2---|
E--3-------------3-----0h3-3---|

September came real fast
Faster than the last


   G             G  C            C

e--3-------------3--3------------3---|
B--3-------------3--3------------3---|
G--0-------------0--0------------0---|
D--0-------------0--2---0h2--0h2-2---|
A--2---0h2-0h2-3-2--3------------3---|
E--3-------------3--x------------x---|

Are you alone?


   G                G

e--3-------------3---------3---|
B--3-------------3---------3---|
G--0-------------0---------0---|
D--0-------------0---------0---|
A--2---0h2-0h2-3-2--0h2----2---|
E--3-------------3-----0h3-3---|

Cause I'm alone


You got the key to our safe
Keep it secret for our sake
Or I'm gone
While I'm gone



   C               G

e--0-------------3-----------|
B--1-------------3-----------|
G--0-------------0-----------|
D--2--0h2-0h2----0-----------|
A--3-------------2--0h2------|
E--0-------------3-----0h3---|

You could hide it in your pillow
Or in an old doll's head
Underneath a tree somewhere


   A             D

e--0-------------2---|
B--2-------------3---|
G--2-------------2---|
D--2---0h2 0h2---0---|
A--0-------------x---|
E--0-------------x---|

Or just swallow it instead



Pre-Chorus:

   D           C  G

e--3--2--0--2--0--3---|
B--3--3--3--3--1--3---|
G--2--2--2--2--0--0---|
D--0--0--0--0--2--0---|
A--x--x--x--x--3--2---|
E--x--x--x--x--0--3---|



Cause Lord you know I?ve tried
        D
Have I not?


     C                                G
And all these new friends stare and remind me
    C              G
Of what I haven't got



G C G C

THen at some point in the song, this goes in:
     G

e--x--x--3---|
B--x--x--3---|
G--x--x--4---|
D--x--x--5---|
A--x--x--5---|
E--x--x--3---|

And that's pretty much the whole pattern for the rhytmic guitar of the song.



Here are the chords for the whole song:

  G
September came real fast
  G
Faster than the last
  G        C
Are you alone?
  C        G
Cause I'm alone

You got the key to our safe
Keep it secret for our sake
Or I'm gone
While I'm gone

     C                      G
You could hide it in your pillow
 C                   G
Or in an old doll's head
  C                  G
Underneath a tree somewhere
            A         D
Or just swallow it instead

  D                        C  G
Cause Lord you know I've tried
        D
Have I not?
                C                          G
And all these new friends stare and remind me
     C             G
Of what I haven't got

G C G C


Fifty thousand pounds
Stashed under the ground
I'll take you out
Now I can take you out

Secrets in the walls
Left there from before
They moved out
Why don't you come round?

And see my new reflection
In my brand new trophy room

We'll buy a ticket out of here
Maybe Rio de Janerio

Cause Lord you know I've tried
Have I not?
And all these new friends stare and remind me
Of what I haven't got

A brand new life in the sun
We'll go from beach to beach
It's just begun
It's just begun

What I thought was the start became the end
It turns out you just want to be my friend
You turn to me and say
"This was a nice holiday" (Nooooo)

And you can see my new reflection
As it crumbles to the floor
Another drink, oh, another chat
I've got friends in every port

 D                         C G
Cause Lord you know I've tried
        D
Have I not?
                  C                         G
And all these new friends stare and remind me
 C                C/B
Oh, but they do inspire me
      G                    C        G
Oh, will anybody take me home tonight?
comments
We did not receive enough feedback on this tab! Please rate:
print report bad tab
1 2 3 4 5
1 comment total.
0 reply
Bankiz wrote on April 9 2013, 12:37 pm

Oops, I made a mistake, "Oh but they do inspire me" at the end is C and then Cm, and not C et C/B.

I want to post or [tab]
guest
You may want to rate the tab now too:
select rating
Please do not post tabs as comments. Select "correction" instead!