Oops, an error
Loading. Please wait.

Itchycoo Park Tab

ver1
ver1

Whole song

Interactive

More versions @911Tabs.com
19,538 views 18 this week
2 commentsread comments
1 2 3 4 5
excellent!
x 4
Autoscroll
+/-
esc
set tempo
stop
Contributor
WARNING: You are trying to view
                                    content from Ultimate-Guitar.com
                                    in an unauthorized application,
                                    which is prohibited.

                                    Please use an official Ultimate
                                    Guitar Tabs application for iPhone,
                                    iPad or Android to access legitimate
                                    chords, guitar, bass, and drum tabs
                                    from Ultimate-Guitar.com database.

                                    Type "ultimate guitar tabs" in Apple
                                    App Store's or Android Market's
                                    search to find the application.
--------------------------------------------------------------------
  THE SMALL FACES - ITCHYCOO PARK (MARRIOTT/LANE)
--------------------------------------------------------------------
  Tabbed by:PJVillanueva
                                     
  
Intro      A        F#m       A        F#m     


Verse
    
A                Dbm    G6/9
Over bridge of sighs to rest my eyes
   Dadd9            A
In shades of green
                  Dbm G6/9      
Under dreaming spires, to Itchycoo park
       Dadd9
That's where I've been


             A           G   D
What did you do there? I got high
             A                G D
What did you feel there? Well I cried
            A                 G   D
But why the tears there? Tell you why


Chorus

A            F#m        A            F#m
It's all too beautiful, it's all too beautiful
A            F#m        A            F#m
it's all too beautiful, it's all too beautiful


Middle eight

A                  C
I feel inclined to blow my mind
    G                D            A
Get hung up feed the ducks with a bun
                     C
They all come out to groove about
      G            D          E
While I search for fun in the sun



Verse 

A                            Dbm
I'll tell you what shall I do (What will you do?)
    G6/9             Dadd9
I'd like to go there now with you
A                    Dbm               G6/9
You can miss out school (won't that be cool)
                    Dadd9
Why go to learn the words of fools


           A                G  D
What do we do there? (we'll get high)
             A                   G    D  
What will we touch there? (we'll touch the sky)
            A                  G      D
But why the tears there? (I'll tell you why)



Chorus

A            F#m        A            F#m
It's all too beautiful, it's all too beautiful
A            F#m        A            F#m
It's all too beautiful, it's all too beautiful


Middle eight

  A                C
I feel inclined to blow my mind
    G                D            A
Get hung up feed the ducks with a bun
                     C
They all come out to groove about
      G            D          E   
While I search for fun in the sun


Chorus

A            F#m        A            F#m
It's all too beautiful, it's all too beautiful
A            F#m        A            F#m        D A
It's all too beautiful
     

Ending chorus

A            F#m
It's all too beautiful............






Intro


e|------ ------ ------ ------|------ ------ ------ ------|
B|---------------------------|---------------------------|
G|---------------------------|---------------------------|
D|---------------------------|---------------------------|
A|---------------------------|---------------------------|
E|---------------------------|-------------------------0-|



  A                           F#m
e|------ ------ ------ ------|------ ------ ------ ------|
B|----2--x----------2--x-----|----2-------------2------x-|
G|----2--x----------2--x-----|----2-------------2------x-|
D|----2--x----------2--x-----|----4-------------4------x-|
A|0-------------0------------|----4-------------4------x-|
E|----------0--------------0-|2----------0--2------------|


  A                           F#m
e|------ ------ ------ ------|------ ------ ------ ------|
B|2------2----2-2---2--2-----|2------2---2--2---2--2-----|
G|2------2----2-2---2--2-----|2------2---2--2---2--2-----|
D|2------2----2-2---2--2-----|4------4---4--4---4--4-----|
A|0------0----0-0---2--0-----|4------4---4--4---4--4-----|
E|---------------------------|2------2---2--2---2--2-----|

e|------ 5----- ------ ------|------ -----5 ------ 5-----|
B|-------5-------------------|------------5H7-P-5--------|
G|-------6-------------------|---------------------7-----|
D|---------------------------|---------------------------|
A|---------------------------|---------------------------|
E|---------------------------|---------------------------|




                            
Verse

  A                           Dbm 
e|------ ------ ------ ------|4---4- 4----- 4---4- 4-----|
B|2------2---2--2------2-----|5---5--5------5---5--5-----|
G|2------2---2--2------2-----|6---6--6------6---6--6-----|
D|2------2---2--2------2-----|6---6--6------6---6--6-----|
A|0------0---0--0------0-----|4---4--4------4---4--4-----|
E|---------------------------|---------------------------|

e|------ ------ ------ ------|------ 4----- ------ ------|
B|---------------------------|-------5------5------------|
G|---------------------------|--------------6------6-----|
D|---------------------------|---------------------7-----|
A|---------------------------|---------------------------|
E|---------------------------|---------------------------|


                            

  G6/9                        Dadd9
e|0----- 0----- 0---0- 0-----|0---0- 0----- 0---0- 0-----|
B|3------3------3---3--3-----|3---3--3------3---3--3-----|
G|2------2------2---2--2-----|2---2--2------2---2--2-----|
D|0------0------0---0--0-----|0---0--0------0---0--0-----|
A|2------2------2---2--2-----|---------------------------|
E|3------3------3---3--3-----|2---2--2------2---2--2-----|

e|------ ------ ------ ------|0----- 0----- ------ ------|
B|5--------------------------|----3------3---------------|
G|6--------------------------|2------2-------------------|
D|5--------------------------|0------0-------------------|
A|---------------------------|---------------------------|
E|---------------------------|---------------------------|



  A                           Dbm
e|------ ------ ------ ------|4----- 4----- 4---4- 4-----|
B|2------2---2--2------2-----|5------5------5---5--5-----|
G|2------2---2--2------2-----|6------6------6---6--6-----|
D|2------2---2--2------2-----|6------6------6---6--6-----|
A|0------0---0--0------0-----|4------4------4---4--4-----|
E|---------------------------|---------------------------|

e|------ ------ ------ ------|------ 4----- ------ ------|
B|---------------------------|-------5------5------------|
G|---------------------------|--------------6------6-----|
D|---------------------------|---------------------7-----|
A|---------------------------|---------------------------|
E|---------------------------|---------------------------|

                            

  G6/9                        Dadd9
e|0---0- 0----- 0---0- 0-----|0---0- 0----- 0---0- 0-----|
B|3---3--3------3---3--3-----|3---3--3------3---3--3-----|
G|2---2--2------2---2--2-----|2---2--2------2---2--2-----|
D|0---0--0------0---0--0-----|0---0--0------0---0--0-----|
A|2---2--2------2---2--2-----|---------------------------|
E|3---3--3------3---3--3-----|2---2--2------2---2--2-----|

e|------ ------ ------ ------|0----- 0----- ------ ------|
B|5--------------------------|----3------3---------------|
G|6--------------------------|2------2-------------------|
D|5--------------------------|0------0-------------------|
A|---------------------------|---------------------------|
E|---------------------------|---------------------------|


  A                 G      D
e|------ ------ ----3- ----2-|------ 2----- 2---2- 2-----|
B|2------2----------3------3-|-------3------3---3--3-----|
G|2------2----------0------2-|-------2------2---2--2-----|
D|2------2----------0------0-|-------0------0---0--0-----|
A|0------0----------2--------|---------------------------|
E|------------------3------2-|-------2------2---2--2-----|

e|------ 5----- ----3- ----2-|------ ------ ------ ------|
B|-------5----------3------3-|---------------------------|
G|-------6----------4------2-|---------------------------|
D|---------------------------|---------------------------|
A|---------------------------|---------------------------|
E|---------------------------|---------------------------|




  A                 G      D
e|------ ------ ----3- ----2-|------ 2----- 2---2- 2-----|
B|2------2----------3------3-|-------3------3---3--3-----|
G|2------2----------0------2-|-------2------2---2--2-----|
D|2------2----------0------0-|-------0------0---0--0-----|
A|0------0----------2--------|---------------------------|
E|------------------3------2-|-------2------2---2--2-----|

e|------ 5----- ----3- ----2-|------ ------ ------ ------|
B|-------5----------3------3-|---------------------------|
G|-------6----------4------2-|---------------------------|
D|---------------------------|---------------------------|
A|---------------------------|---------------------------|
E|---------------------------|---------------------------|




  A                 G      D
e|------ ------ ----3- ----2-|------ 2----- 2---2- 2-----|
B|2------2----------3------3-|-------3------3---3--3-----|
G|2------2----------0------2-|-------2------2---2--2-----|
D|2------2----------0------0-|-------0------0---0--0-----|
A|0------0----------2--------|---------------------------|
E|------------------3------2-|-------2------2---2--2-----|

e|------ 5----- ----3- ----2-|------ ------ ------ ------|
B|-------5----------3------3-|---------------------------|
G|-------6----------4------2-|---------------------------|
D|---------------------------|---------------------------|
A|---------------------------|---------------------------|
E|---------------------------|---------------------------|




Chorus

  A                           F#m                  D
e|------ ------ ------ ------|------ ------ ------ 2-----|
B|2------2------2---2--2---2-|2------2------2---2--3-----|
G|2------2------2---2--2---2-|2------2------2---2--2-----|
D|2------2------2---2--2---2-|4------4------4---4--0-----|
A|0------0------0---0--0---0-|4------4------4---4--------|
E|---------------------------|2------2------2---2--------|

e|------ 5----- ------ ------|------ -----5 ------ 5-----|
B|-------5-------------------|------------5H7-P-5--------|
G|-------6-------------------|---------------------7-----|
D|---------------------------|---------------------------|
A|---------------------------|---------------------------|
E|---------------------------|---------------------------|



 
  A                           F#m                  D
e|------ ------ ------ ------|------ ------ ------ 2-----|
B|2------2------2---2--2-----|2------2------2---2--3-----|
G|2------2------2---2--2-----|2------2------2---2--2-----|
D|2------2------2---2--2-----|4------4------4---4--0-----|
A|0------0------0---0--0-----|4------4------4---4--------|
E|---------------------------|2------2------2---2--------|

e|------ 5----- ------ ------|------ -----5 ------ 5-----|
B|-------5-------------------|------------5H7-P-5--------|
G|-------6-------------------|---------------------7-----|
D|---------------------------|---------------------------|
A|---------------------------|---------------------------|
E|---------------------------|---------------------------|





  A                           F#m                  D
e|------ ------ ------ ------|------ ------ ------ 2-----|
B|2------2------2---2--2---2-|2------2------2---2--3-----|
G|2------2------2---2--2---2-|2------2------2---2--2-----|
D|2------2------2---2--2---2-|4------4------4---4--0-----|
A|0------0------0---0--0---0-|4------4------4---4--------|
E|---------------------------|2------2------2---2--------|

e|------ 5----- ------ ------|------ -----5 ------ 5-----|
B|-------5-------------------|------------5H7-P-5--------|
G|-------6-------------------|---------------------7-----|
D|---------------------------|---------------------------|
A|---------------------------|---------------------------|
E|---------------------------|---------------------------|



 
  A                           F#m                  D
e|------ ------ ------ ------|------ ------ ------ 2-----|
B|2------2------2---2--2-----|2------2------2---2--3-----|
G|2------2------2---2--2-----|2------2------2---2--2-----|
D|2------2------2---2--2-----|4------4------4---4--0-----|
A|0------0------0------0-----|4------4------4---4--------|
E|---------------------------|2------2------2---2--------|

e|------ 5----- ------ ------|------ -----5 ------ 5-----|
B|-------5-------------------|------------5H7-P-5--------|
G|-------6-------------------|---------------------7-----|
D|---------------------------|---------------------------|
A|---------------------------|---------------------------|
E|---------------------------|---------------------------|





Middle eight


  A                           C
e|------ ------ ------ ------|------ ------ ------ ------|
B|-------2-------------2-----|-------1-------------1-----|
G|-------2-------------2-----|-------0-------------0-----|
D|----2------2------2------2-|----2------2------2------2-|
A|0-------------0------------|3-------------3------------|
E|---------------------------|---------------------------|

e|-9---- ------ ------ ------|8----- ------ ------ ------|
B|10-------------------------|8--------------------------|
G|-9-------------------------|9--------------------------|
D|---------------------------|---------------------------|
A|---------------------------|---------------------------|
E|---------------------------|---------------------------|

 

  G             D             A
e|------ ------ ------ ------|------ ------ ------ ------|
B|0----------0--3------3-----|----2------2------2------2-|
G|0---2------0--2------2-----|---------------------------|
D|0----------0--4---2--0-----|2------2------2------2-----|
A|---------------------------|0--------------------------|
E|3--------------------------|---------------------------|

e|7---7- --7--- 5---5- --5---|5----- ------ ------ ------|
B|8---8----8----7---7----7---|5--------------------------|
G|7---7----8----7---7----7---|6--------------------------|
D|---------------------------|---------------------------|
A|---------------------------|---------------------------|
E|---------------------------|---------------------------|



  A                           C
e|----9- ------ 9----- 9-----|----8- ------ ----8- ------|
B|---------------------------|-------8-------------8-----|
G|-----------9------9------9-|-----------9-------------9-|
D|7------7-------------------|10------------10-----------|
A|---------------------------|---------------------------|
E|---------------------------|---------------------------|

e|-9---- ------ ------ ------|8----- ------ ------ ------|
B|10-------------------------|8--------------------------|
G|-9-------------------------|9--------------------------|
D|---------------------------|---------------------------|
A|---------------------------|---------------------------|
E|---------------------------|---------------------------|

 


  G             D             E
e|7---7- --7--- 5---5- --5---|------ ------ ------ ------|
B|8---8----8----7---7----7---|9--------------------------|
G|7---7----7----7---7----7---|9--------------------------|
D|---------------------------|9--------------------------|
A|---------------------------|---------------------------|
E|---------------------------|---------------------------|



e|------ ------ ------ ------|
B|---------------------------|
G|---------------------------|
D|---------------------------|
A|---------------------------|
E|---------------------------|



Chorus

  A                           F#m                  D
e|------ ------ ------ ------|------ ------ ------ 2-----|
B|2------2------2---2--2---2-|2------2------2---2--3-----|
G|2------2------2---2--2---2-|2------2------2---2--2-----|
D|2------2------2---2--2---2-|4------4------4---4--0-----|
A|0------0------0---0--0---0-|4------4------4---4--------|
E|---------------------------|2------2------2---2--------|

e|------ 5----- ------ ------|------ -----5 ------ 5-----|
B|-------5-------------------|------------5H7-P-5--------|
G|-------6-------------------|---------------------7-----|
D|---------------------------|---------------------------|
A|---------------------------|---------------------------|
E|---------------------------|---------------------------|

 
  A                           F#m                  D
e|------ ------ ------ ------|------ ------ ------ 2-----|
B|2------2------2---2--2-----|2------2------2---2--3-----|
G|2------2------2---2--2-----|2------2------2---2--2-----|
D|2------2------2---2--2-----|4------4------4---4--0-----|
A|0------0------0---2--0-----|4------4------4---4--------|
E|---------------------------|2------2------2---2--------|

e|------ 5----- ------ ------|------ -----5 ------ 5-----|
B|-------5-------------------|------------5H7-P-5--------|
G|-------6-------------------|---------------------7-----|
D|---------------------------|---------------------------|
A|---------------------------|---------------------------|
E|---------------------------|---------------------------|



  A                           F#m                  D
e|------ ------ ------ ------|------ ------ ------ 2-----|
B|2------2------2---2--2---2-|2------2------2---2--3-----|
G|2------2------2---2--2---2-|2------2------2---2--2-----|
D|2------2------2---2--2---2-|4------4------4---4--0-----|
A|0------0------0---0--0---0-|4------4------4---4--------|
E|---------------------------|2------2------2---2--------|

e|------ 5----- ------ ------|------ -----5 ------ 5-----|
B|-------5-------------------|------------5H7-P-5--------|
G|-------6-------------------|---------------------7-----|
D|---------------------------|---------------------------|
A|---------------------------|---------------------------|
E|---------------------------|---------------------------|

 
  A                           F#m
e|------ ------ ------ ------|------ ------ ------ ------|
B|2------2------2---2--2-----|2--------------------------|
G|2------2------2---2--2-----|2--------------------------|
D|2------2------2---2--2-----|4--------------------------|
A|0------0------0---0--0-----|4--------------------------|
E|---------------------------|2--------------------------|

e|------ 5----- ------ ------|------ ------ ------ ------|
B|-------5-------------------|---------------------------|
G|-------6-------------------|---------------------------|
D|---------------------------|---------------------------|
A|---------------------------|---------------------------|
E|---------------------5-4-3-|2--------------------------|


                       D   A
e|------ ------ ------ 2-----|
B|---------------------3---2-|
G|---------------------2---2-|
D|---------------------0---2-|
A|---------------------0---0-|
E|---------------------------|



Ending Chorus

  A                           F#m                  D   A
e|------ ------ ------ ------|------ ------ ------ 2-----|
B|2------2------2---2--2---2-|2------2------2---2--3---2-|
G|2------2------2---2--2---2-|2------2------2---2--2---2-|
D|2------2------2---2--2---2-|4------4------4---4--0---2-|
A|0------0------0---0--0---0-|4------4------4---4--0---0-|
E|---------------------------|2------2------2---2--------|

e|------ 5----- ------ ------|------ -----5 ------ 5-----|
B|-------5-------------------|------------5H7-P-5--------|
G|-------6-------------------|---------------------7-----|
D|---------------------------|---------------------------|
A|---------------------------|---------------------------|
E|---------------------------|---------------------------|


 
                              F#m                  D   A
e|------ ------ ------ ------|------ ------ ------ 2-----|
B|-------2------2---2--2-----|2------2------2---2--3---2-|
G|-------2------2---2--2-----|2------2------2---2--2---2-|
D|-------2------2---2--2-----|4------4------4---4--0---2-|
A|-------0------0---2--0-----|4------4------4---4------0-|
E|---------------------------|2------2------2---2--------|

e|------ 5----- ------ ------|------ -----5 ------ 5---5-|
B|-------5-------------------|------------5H7-P-5------5-|
G|-------6-------------------|---------------------7---6-|
D|---------------------------|---------------------------|
A|---------------------------|---------------------------|
E|---------------------------|---------------------------|


                              F#m                  D   A
e|------ ------ ------ ------|------ ------ ------ 2-----|
B|-------2------2---2--2---2-|2------2------2---2--3---2-|
G|-------2------2---2--2---2-|2------2------2---2--2---2-|
D|-------2------2---2--2---2-|4------4------4---4--0---2-|
A|-------0------0---0--0---0-|4------4------4---4--0---0-|
E|---------------------------|2------2------2---2--------|

e|------ 5----- ------ ------|------ -----5 ------ 5---5-|
B|-------5-------------------|------------5H7-P-5------5-|
G|-------6-------------------|---------------------7---6-|
D|---------------------------|---------------------------|
A|---------------------------|---------------------------|
E|---------------------------|---------------------------|




                              F#m                  D   A
e|------ ------ ------ ------|------ ------ ------ 2-----|
B|-------2------2---2--2-----|2------2------2---2--3---2-|
G|-------2------2---2--2-----|2------2------2---2--2---2-|
D|-------2------2---2--2-----|4------4------4---4--0---2-|
A|-------0------0---2--0-----|4------4------4---4------0-|
E|---------------------------|2------2------2---2--------|
                              
e|------ 5----- ------ ------|------ -----5 ------ 5---5-|
B|-------5-------------------|------------5H7-P-5------5-|
G|-------6-------------------|---------------------7---6-|
D|---------------------------|---------------------------|
A|---------------------------|---------------------------|
E|---------------------------|---------------------------|
                              ..............Fade.........


                              F#m                  D   A
e|------ ------ ------ ------|------ ------ ------ 2-----|
B|-------2------2---2--2---2-|2------2------2---2--3---2-|
G|-------2------2---2--2---2-|2------2------2---2--2---2-|
D|-------2------2---2--2---2-|4------4------4---4--0---2-|
A|-------0------0---0--0---0-|4------4------4---4--0---0-|
E|---------------------------|2------2------2---2--------|

e|------ 5----- ------ ------|------ -----5 ------ 5---5-|
B|-------5-------------------|------------5H7-P-5------5-|
G|-------6-------------------|---------------------7---6-|
D|---------------------------|---------------------------|
A|---------------------------|---------------------------|
E|---------------------------|---------------------------|

  .......................................................

                              F#m                  D   A
e|------ ------ ------ ------|------ ------ ------ 2-----|
B|-------2------2---2--2---2-|2------2------2---2--3---2-|
G|-------2------2---2--2---2-|2------2------2---2--2---2-|
D|-------2------2---2--2---2-|4------4------4---4--0---2-|
A|-------0------0---0--0---0-|4------4------4---4--0---0-|
E|---------------------------|2------2------2---2--------|

e|------ 5----- ------ ------|------ -----5 ------ 5---5-|
B|-------5-------------------|------------5H7-P-5------5-|
G|-------6-------------------|---------------------7---6-|
D|---------------------------|---------------------------|
A|---------------------------|---------------------------|
E|---------------------------|---------------------------|

  .......................................................

        B  Bend
        R  Release
        /  slide up
        \  slide down
        H  hammer-on
        P  pull-off
        ~  vibrato
        +  harmonic
        x  Mute note
        . - play note like a dot in standard notation
        ^ - ties two notes together
comments
print report bad tab
2 comments total.
0 reply
jaxtheaxe wrote on January 8 2007, 05:40 pm

Best Itchycoo Park tab, your an amzing tabber :D.

0 reply
mikrom wrote on November 15 2009, 09:16 pm

Don't mean to nitpick, but Dbm should be C#m. It's the same chord but there are no flats in key of A, only sharps. Otherwise an excellent and very accurate tab. Thanks.

I want to post or [tab]
guest
You may want to rate the tab now too:
select rating
Please do not post tabs as comments. Select "correction" instead!