Oops, an error
Loading. Please wait.

Cherry Tab

ver2
ver2

Whole song

Interactive

More versions @911Tabs.com
724 views 12 this week
no commentswrite comment
1 2 3 4 5
please rate
Autoscroll
+/-
esc
set tempo
stop
Contributor
NEW! There's an official Ultimate Guitar app which is ideal
for learning songs when you're away from computer. Get the app
WARNING: You are trying to view
                                    content from Ultimate-Guitar.com
                                    in an unauthorized application,
                                    which is prohibited.

                                    Please use an official Ultimate
                                    Guitar Tabs application for iPhone,
                                    iPad or Android to access legitimate
                                    chords, guitar, bass, and drum tabs
                                    from Ultimate-Guitar.com database.

                                    Type "ultimate guitar tabs" in Apple
                                    App Store's or Android Market's
                                    search to find the application.
================================================================================
                       S M A S H I N G   P U M P K I N S

                                       -

                                  C H E R R Y
================================================================================


                             THE AEROPLANE FLIES HIGH
                                  [1979 Single]
                           (c) Virgin Records - 1996
                        http://www.smashingpumpkins.com/


                          Tune Down a 1/2 Step, then Drop D
                                C# G# C#  F# A# D#

                                 Tempo = 106 BPM
                               Time Signature = 4/4



                          -----------------------------
                                 Transcribed by

                                 PADDY MCMULLAN
                           stinkypoohpants@yahoo.co.uk

                                   Version 1.0
                                17th  March 2009
                             -----------------------

                             Tablature Symbols Used:


 p         -  Pull-Off
 h         -  Hammer-On
 (/)       -  Legato Slide (Blank space indicates length of slide)
 \         -  Slide Down to/Down From (Blank space indicates length of slide)
 /         -  Slide Up To/Up From (Blank space indicates length of slide)
 ( )       -  Ghost Note/Tied Note/Implied Note
 REST      -  Rest and sustain rest for duration of blank space


                                   -----------
                                   Song Notes:
                                   -----------

  Contrary to popular belief, the main riffs of this song are played on bass,
  not guitar.  Guitar 1's chords are struck once, but they repeat and stutter
        via various effects (delay and some sort of stuttering effect).


================================================================================
Rest for 2 bars
================================================================================

================================================================================
Riff 1 [Verse]: Guitar 1 with Stutter/Delay (Repeats outlined below)
================================================================================


* Let notes ring wherever possible *


-------
Fig. 1: x 1
-------


||-------------|--------------||
||--/10--------|--(10)--------||
||--/11--------|--(11)--------||
||-------------|--------------||
||-------------|--------------||
||-------------|--------------||


-------
Fig. 2: x 16
-------


||---------------|---------------||
||--12------10---|--10------10---||
||--11------11---|--9-------7----||
||--9-------9----|--9-------7----||
||---------------|---------------||
||---------------|---------------||



-------
Fig. 3: x 1
-------


||------------||
||--10--------||
||--7---------||
||--7---------||
||------------||
||------------||



================================================================================
Pre-Chorus: Guitar 2 with Clean Tone (Play 5 times)
================================================================================


* Let notes ring wherever possible *


[ The first bar overlaps with Fig. 3 from the Verse riff, and is played once ]


||-----------------------||--------------------0--|
||--R-         ----3-----||----------3------------|
||--E-         -2-----2--||-------2-------2-------|
||--S-         ----------||--4--------------------|
||--T-         ----------||-----------------------|
||-----------------------||-----------------------|


|-(0)---------------------| |
|------3------------3-----| |
|-----------2----2-----2--|*|
|-------------------------|*|
|-------------------------| |
|-------------------------| |



On the last repeat, the last three notes of the last bar are not played (just
rest until the beginning of the next riff).



================================================================================
Chorus: Guitar 2 (Play once)
================================================================================


* Let notes ring wherever possible *


||-------0----------------|-----0-----0------------|
||--3---------3--------5--|-(5)----0--0------0--0--|
||--2------------2-----6--|-(6)-------4------4--0--|
||--4---------------4--7--|-(7)-------5------5-----|
||---------------------0--|-(0)-------7------------|
||------------------------|------------------------|


|-------0----------------|-----------0------------|-------0----------------|
|--3---------3--------5--|-(5)----0--0------0-----|--3---------3--------5--|
|--2------------2-----6--|-(6)-6-----4------4--4--|--2------------2-----6--|
|--4---------------4--7--|-(7)-------5------5--5--|--4---------------4--7--|
|---------------------0--|-(0)-------7------7--7--|---------------------0--|
|------------------------|------------------------|------------------------|


|-----------0------------|-------0----------------|-------------------||
|-(5)----0--0------------|--3---------3--------5--|-(5)---------------||
|-(6)-6-----4------------|--2------------2-----6--|-(6)---------------||
|-(7)-7-----5------5--0--|--4---------------4--7--|-(7)---------------||
|-(0)-0-----7------7-----|---------------------0--|-(0)---------------||
|------------------------|------------------------|-------------------||



================================================================================
Guitar 1 plays the Fig. 2 of the Verse riff 10 times, then plays the following:
================================================================================


* Let notes ring wherever possible *


||------------||
||--12--------||
||--11--------||
||--9---------||
||------------||
||------------||



================================================================================
Guitar 2 plays the Pre-Chorus 5 times
================================================================================

================================================================================
Guitar 2 plays the Chorus once
================================================================================

================================================================================
End
================================================================================


Tab summary:        Riff 1:
                           Fig. 1 x 1
                           Fig. 2 x 16
                           Fig. 3 x 1
                    Pre-Chorus x 5
                    Chorus x 1
                    Riff 1:
                           Fig. 2 x 10
                    Pre-Chorus x 5
                    Chorus x 1

                    END
comments
We did not receive enough feedback on this tab! Please rate:
print report bad tab
1 2 3 4 5
I want to post or [tab]
guest
You may want to rate the tab now too:
select rating
Please do not post tabs as comments. Select "correction" instead!