Oops, an error
Loading. Please wait.

Gish Tab

16,673 views 36 this week
3 commentsread comments
1 2 3 4 5
accurate
x 7
add to favorites launch autoscroll
font size
0
reset
Autoscroll
+/-
esc
set tempo
stop
Contributor
Difficulty
advanced
WARNING: You are trying to view
                                    content from Ultimate-Guitar.com
                                    in an unauthorized application,
                                    which is prohibited.

                                    Please use an official Ultimate
                                    Guitar Tabs application for iPhone,
                                    iPad or Android to access legitimate
                                    chords, guitar, bass, and drum tabs
                                    from Ultimate-Guitar.com database.

                                    Type "ultimate guitar tabs" in Apple
                                    App Store's or Android Market's
                                    search to find the application.
*GISH*

Smashing Pumpkins, 1991

I’ve tabbed out all these except where noted.

The Songs: I Am One, Siva, Rhinoceros, Bury Me, Crush, Suffer, Snail, Tristessa, Window 
Daydream, I’m Going Crazy.

==i am one==

Thanks to Yosef Cohen for this tab. Use a wah pedal on the solos. The distortion sounds 
a Big Muff.

Tuning: E A D G B E


INTRO

 Both Guitars                    x2
|-----------------------------0----|
|-----------0--------------0-------|
|---------3--------------3---------|
|-------4--------------4-----------|
|----4--------------4--------------|
|-2--------------0-----------------|


 Guitar 1                                        x2
|--------------------------------------------------|
|--------------------------------------------------|
|--------------------2--2---------------------2--4-|
|-4-4-4-4-4-4-4-4-4--2--2--4-4-4-4-4-4-4-4-4--2--4-|
|-4-4-4-4-4-4-4-4-4--0--0--4-4-4-4-4-4-4-4-4--0--2-|
|-2-0-0-2-0-2-0-2-0--------2-0-0-2-0-2-0-2-0-------|

 Guitar 2                                                 x2
|-----------------------------------------------------------|
|-----------------------------------------------------------|
|-11-----11---11---11----9~~--11-----11---11---11----9/11~~-|
|-----------------------------------------------------------|
|--9-----9----9----9----------9------9----9----9------------|
|----0-0----0----0----0----------0-0----0----0----0---------|


SOLO

 Rhythm                                          x2
|--------------------------------------------------|
|--------------------------------------------------|
|--------------------2--2---------------------2--4-|
|-4-4-4-4-4-4-4-4-4--2--2--4-4-4-4-4-4-4-4-4--2--4-|
|-4-4-4-4-4-4-4-4-4--0--0--4-4-4-4-4-4-4-4-4--0--2-|
|-2-0-0-2-0-2-0-2-0--------2-0-0-2-0-2-0-2-0-------|

 Lead
|----------------------------------------------------------------|
|----------------------------------------------------------------|
|-4gb6~~-------------------------------2-4-4b6r4p2-4b6r4p2-------|
|-4gb6~~-2---4~~-----2~~---------2h4~~---------------------4~~~~-|
|----------4-----4-2---------2-4---------------------------------|
|------------------------2-5-------------------------------------|
         ...     ...     .......


VERSE

 Guitar 1                                        x4
|--------------------------------------------------|
|--------------------------------------------------|
|--------------------2--2---------------------2--4-|
|-4-4-4-4-4-4-4-4-4--2--2--4-4-4-4-4-4-4-4-4--2--4-|
|-4-4-4-4-4-4-4-4-4--0--0--4-4-4-4-4-4-4-4-4--0--2-|
|-2-0-0-2-0-2-0-2-0--------2-0-0-2-0-2-0-2-0-------|

 Guitar 2                                                 x4
|-----------------------------------------------------------|
|-----------------------------------------------------------|
|-11-----11---11---11----9~~--11-----11---11---11----9/11~~-|
|-----------------------------------------------------------|
|--9-----9----9----9----------9------9----9----9------------|
|----0-0----0----0----0----------0-0----0----0----0---------|


PRECHORUS
                                                                    x2
|---------------------------------------------------------------------|
|---------------------------------------------------------------------|
|-----------------------------13-13-----------------------------------|
|---------------------------------------------------------------12-14-|
|-----------------------------11-11-----------------------------12-14-|
|-12p0-0-0-12p0-0-12p0-0-12p0-------12p0-0-0-12p0-0-12p0-0-12p0-10-12-|


BRIDGE

 Both Guitars                    x2
|-----------------------------0----|
|-----------0--------------0-------|
|---------3--------------3---------|
|-------4--------------4-----------|
|----4--------------4--------------|
|-2--------------0-----------------|


SOLO 2

 Rhythm                                          x2
|--------------------------------------------------|
|--------------------------------------------------|
|--------------------2--2---------------------2--4-|
|-4-4-4-4-4-4-4-4-4--2--2--4-4-4-4-4-4-4-4-4--2--4-|
|-4-4-4-4-4-4-4-4-4--0--0--4-4-4-4-4-4-4-4-4--0--2-|
|-2-0-0-2-0-2-0-2-0--------2-0-0-2-0-2-0-2-0-------|

 Lead (*=artificial harmonic)
|--------------------------------------------------------------------------------|
|--------------------------------------------------------------------------------|
|-16b18~~-(18)r16~~-14h16p14\13~~------------------------------------------------|
|---------------------------------16gb18~~-16h18p16\14~~------------------*16*~~-|
|--------------------------------------------------------14-12----12-------------|
|--------------------------------------------------------------14----12~~--------|
                                                         ...........


VERSE 2

 Guitar 1                                        x4
|--------------------------------------------------|
|--------------------------------------------------|
|--------------------2--2---------------------2--4-|
|-4-4-4-4-4-4-4-4-4--2--2--4-4-4-4-4-4-4-4-4--2--4-|
|-4-4-4-4-4-4-4-4-4--0--0--4-4-4-4-4-4-4-4-4--0--2-|
|-2-0-0-2-0-2-0-2-0--------2-0-0-2-0-2-0-2-0-------|

 Guitar 2                                                 x4
|-----------------------------------------------------------|
|-----------------------------------------------------------|
|-11-----11---11---11----9~~--11-----11---11---11----9/11~~-|
|-----------------------------------------------------------|
|--9-----9----9----9----------9------9----9----9------------|
|----0-0----0----0----0----------0-0----0----0----0---------|


PRECHORUS 2
                                                                    x2
|---------------------------------------------------------------------|
|---------------------------------------------------------------------|
|-----------------------------13-13-----------------------------------|
|---------------------------------------------------------------12-14-|
|-----------------------------11-11-----------------------------12-14-|
|-12p0-0-0-12p0-0-12p0-0-12p0-------12p0-0-0-12p0-0-12p0-0-12p0-10-12-|


CHORUS

 Both Guitars                                   x4
|--------------------------------------------------|
|--------------------------------------------------|
|--------------------2--2---------------------2--4-|
|-4-4-4-4-4-4-4-4-4--2--2--4-4-4-4-4-4-4-4-4--2--4-|
|-4-4-4-4-4-4-4-4-4--0--0--4-4-4-4-4-4-4-4-4--0--2-|
|-2-0-0-2-0-2-0-2-0--------2-0-0-2-0-2-0-2-0-------|

 Lead Fill
|--------------|
|--------------|
|-9/-11\-6~~~~-|
|--------------|
|--------------|
|--------------|


INTERLUDE - Guitar 1 plays following lead - Guitar 2 holds an A5 chord

 A5
|----------------------------------------------------------|
|----3-2~--3~-3/5-5/7-5~~--3h5p3\2h3~~--2h3p2p0--0h2p0-----|
|-2~---------------------------------------------------2~~-|
|----------------------------------------------------------|
|----------------------------------------------------------|
|----------------------------------------------------------|

 A5
|-----------------------------------------------------|
|----3-2~--3~-3/5-5/7-5~~--3h5p3\2h3-3/5~-7-5~-7--8~~-|
|-2~--------------------------------------------------|
|-----------------------------------------------------|
|-----------------------------------------------------|
|-----------------------------------------------------|


SOLO 3

|-------------------------------------------------------------------------|
|-17b19~~-19r17~~p(14)----------------------------------------------------|
|----------------------16b18~~-14-14~~~~-----14-16b18r16p14------18p16p14-|
|----------------------------------------/16----------------16~~----------|
|-------------------------------------------------------------------------|
|-------------------------------------------------------------------------|

 -------------17b19r17~~~~--19b21~~~~-------21b24~~~~---------------------|
 -17b19r17p14-------------------------19p17----------------14h17p14-------|
 -------------------------------------------------------------------16b18-|
 -----------------------------------------------------\\\\----------------|
 -----------------------------------------------------\\\\----------------|
 -----------------------------------------------------\\\\----------------|

 --------------------------------------12-10-9-7-5-4-2-0---------------------|
 --------------------------------------------------------3-2-0---------------|
 -16b18r16~~-13h14p13\11h13p11---------------------------------2-1-----------|
 ------------------------------------------------------------------4-2-------|
 ------------------------------12b16~~---------------------------------4-----|
 ------------------------------------------------------------------------2~~-|

Then bass for 2 bars


SOLO 4

 Rhythm                                          x4
|--------------------------------------------------|
|--------------------------------------------------|
|--------------------2--2---------------------2--4-|
|-4-4-4-4-4-4-4-4-4--2--2--4-4-4-4-4-4-4-4-4--2--4-|
|-4-4-4-4-4-4-4-4-4--0--0--4-4-4-4-4-4-4-4-4--0--2-|
|-2-0-0-2-0-2-0-2-0--------2-0-0-2-0-2-0-2-0-------|

 Lead
|----------------------------16r14~~-16p14h17b19~~-17-19-17-19r17-19r17-19r17-|
|-14-----------------17b19~~--------------------------------------------------|
|-16b18~~-14h16p14~~----------------------------------------------------------|
|-----------------------------------------------------------------------------|
|-----------------------------------------------------------------------------|
|-----------------------------------------------------------------------------|

 -14--------------------------------------------------------------------------|
 ----17-17b19~~---------------------------------------------------------------|
 ---------------16h18p16\14~~-18r16gb18p14~~----------------------------------|
 --------------------------------------------14h16p14----16~~-----------------|
 -----------------------------------------------------16------14gb16----------|
 --------------------------------------------------------------------(14)\\\\-|


CHORUS 2

 Both Guitars                                   x4
|--------------------------------------------------|
|--------------------------------------------------|
|--------------------2--2---------------------2--4-|
|-4-4-4-4-4-4-4-4-4--2--2--4-4-4-4-4-4-4-4-4--2--4-|
|-4-4-4-4-4-4-4-4-4--0--0--4-4-4-4-4-4-4-4-4--0--2-|
|-2-0-0-2-0-2-0-2-0--------2-0-0-2-0-2-0-2-0-------|

End on.. (Play this by pulling up on the whammy bar or just bending 2b4 if you dont have one.)
|-----------------|
|-----------------|
|-----------------|
|-4b6~~r4--4-4----|
|-4b6~~r4--4-4----|
|-2b4~~r2--2-2----|

==siva==

Tuning: E A D G B E


INTRO - Play the following 2x

 Guitar 1                             x3
|---------------------------------------|
|---------------------------------------|
|---------------------------------------|
|---------------------------------------|
|-12h14-14-14-14--14-12--14-14-14b15r14-|
|-0-----0--0--0---0--0---0--0-----------|
|Guitar 2 (Enter on 2nd bar)          x2
|---------------------------------------|
|---------------------------------------|
|---------------------------------------|
|---------------------------------------|
|-6h7---7--7--7---7--6---7--7--7b8r7----|
|-0-----0--0--0---0--0---0--0--0--------|

 Guitar 1
|-------------------------|
|-------------------------|
|-------------------------|
|-------------------9---7-|
|-12h14-14-14-14----9---7-|
|-0-----0--0--0---0-7-0-5-|
|Guitar 2
|-------------------------|
|-------------------------|
|-------------------------|
|-------------------9---7-|
|-6h7---7--7--7-----9---7-|
|-0-----0--0--0---0-7-0-5-|


VERSE - Play the following 2x

 Guitar 1                             x3
|---------------------------------------|
|---------------------------------------|
|---------------------------------------|
|---------------------------------------|
|-12h14-14-14-14--14-12--14-14-14b15r14-|
|-0-----0--0--0---0--0---0--0-----------|
|Guitar 2                             x3
|---------------------------------------|
|---------------------------------------|
|---------------------------------------|
|---------------------------------------|
|-6h7---7--7--7---7--6---7--7--7b8r7----|
|-0-----0--0--0---0--0---0--0--0--------|

 Guitar 1
|-------------------------|
|-------------------------|
|-------------------------|
|-------------------5---7-|
|-12h14-14-14-14----5---7-|
|-0-----0--0--0---0-3-0-5-|
|Guitar 2
|-------------------------|
|-------------------------|
|-------------------------|
|-------------------5---7-|
|-6h7---7--7--7-----5---7-|
|-0-----0--0--0---0-3-0-5-|


BRIDGE

 Rhythm
|----------------------------------------------------------------------|
|----------------------------------------------------------------------|
|--------9----------------------9----------------------9---------------|
|--------9------5---7-----------9------9---7-----------9------5---7----|
|--------7------5---7-----------7------9---7-----------7------5---7----|
|-0--0-0------0-3-0-5----0--0-0------0-7-0-5----0--0-0------0-3-0-5----|

|-0--0--0--0--0-0-|
|-8--8--8--8--8-8-|
|-7--7--7--7--7-7-|
|-6--6--6--6--6-6-|
|-7--7--7--7--7-7-|
|-0--0--0--0--0-0-|

|----------------------------------------------------------------------|
|----------------------------------------------------------------------|
|--------9----------------------9----------------------9---------------|
|--------9------5---7-----------9------9---7-----------9------5---7----|
|--------7------5---7-----------7------9---7-----------7------5---7----|
|-0--0-0------0-3-0-5----0--0-0------0-7-0-5----0--0-0------0-3-0-5----|

|-0--0--0--0--0-0-|
|-8--8--8--8--8-8-|
|-7--7--7--7--7-7-|
|-6--6--6--6--6-6-|
|-7--7--7--7--7-7-|
|-0--0--0--0--0-0-|


 Lead
|-----------------------------------------------------------------------|
|-(15)b17r15-------------------------------------15b17r15---------------|
|------------14b16r14p12----14b16r14-14b16r14p12----------14b16r14------|
|------------------------14----------------------------------------14~~-|
|-----------------------------------------------------------------------|
|-----------------------------------------------------------------------|

|-----------------------------------------------------------------------|
|-----------------------------------------------------------------------|
|-16r14p12-----------12--16r14p12-----14b16r14--16r14p12-----------12~~-|
|----------14--12h14--------------14---------------------14--12h14------|
|-----------------------------------------------------------------------|
|-----------------------------------------------------------------------|


VERSE 2

 Guitar 1
|---------------------------------------|
|---------------------------------------|
|---------------------------------------|
|---------------------------------------|
|-12h14-14-14-14--14-12--14-14-14b15r14-|
|-0-----0--0--0---0--0---0--0-----------|
|Guitar 2
|---------------------------------------|
|---------------------------------------|
|---------------------------------------|
|---------------------------------------|
|-6h7---7--7--7---7--6---7--7--7b8r7----|
|-0-----0--0--0---0--0---0--0--0--------|

 Guitar 1
|-------------------------|
|-------------------------|
|-------------------------|
|-------------------9---7-|
|-12h14-14-14-14----9---7-|
|-0-----0--0--0---0-7-0-5-|
|Guitar 2
|-------------------------|
|-------------------------|
|-------------------------|
|-------------------9---7-|
|-6h7---7--7--7-----9---7-|
|-0-----0--0--0---0-7-0-5-|

 Guitar 1
|---------------------------------------|
|---------------------------------------|
|---------------------------------------|
|---------------------------------------|
|-12h14-14-14-14--14-12--14-14-14b15r14-|
|-0-----0--0--0---0--0---0--0-----------|
|Guitar 2
|---------------------------------------|
|---------------------------------------|
|---------------------------------------|
|---------------------------------------|
|-6h7---7--7--7---7--6---7--7--7b8r7----|
|-0-----0--0--0---0--0---0--0--0--------|

 Guitar 1
|-------------------------|
|-------------------------|
|-------------------------|
|-------------------5---7-|
|-12h14-14-14-14----5---7-|
|-0-----0--0--0---0-3-0-5-|
|Guitar 2
|-------------------------|
|-------------------------|
|-------------------------|
|-------------------5---7-|
|-6h7---7--7--7-----5---7-|
|-0-----0--0--0---0-3-0-5-|

 Guitar 1
|---------------------------------------|
|---------------------------------------|
|---------------------------------------|
|---------------------------------------|
|-12h14-14-14-14--14-12--14-14-14b15r14-|
|-0-----0--0--0---0--0---0--0-----------|
|Guitar 2
|---------------------------------------|
|---------------------------------------|
|---------------------------------------|
|---------------------------------------|
|-6h7---7--7--7---7--6---7--7--7b8r7----|
|-0-----0--0--0---0--0---0--0--0--------|

 Guitar 1
|-------------------------|
|-------------------------|
|-------------------------|
|-------------------9---7-|
|-12h14-14-14-14----9---7-|
|-0-----0--0--0---0-7-0-5-|
|Guitar 2
|-------------------------|
|-------------------------|
|-------------------------|
|-------------------9---7-|
|-6h7---7--7--7-----9---7-|
|-0-----0--0--0---0-7-0-5-|

Both guitars hit this before the chorus
|------|
|------|
|------|
|-2----|
|-2----|
|-0----|


CHORUS

         x24
|---------0-|
|---------0-|
|---------X-|
|-5/7-7-7-2-|
|-5/7-7-7-2-|
|-3/5-5-5-0-|


Lead
|---------------------------------------|
|---------------------------------------|
|----14b16r14-12~~--12----12------------|
|-14-------------------12----14-12~~----|
|---------------------------------------|
|---------------------------------------|


BRIDGE
|-------------------------(0)---|
|--------------------------8----|
|-7-x-7--------------------7----|
|-7-x-7--------------------6----|
|-5-x-5----5---------5-----7----|
|------------7-6-5-3----0-------|
           .........

|-------------------------------|
|-------------------------------|
|-7-x-7--------------------9----|
|-7-x-7--------------------9----|
|-5-x-5----5---------5-----7----|
|------------7-6-5-3----0--7----|
           .........


INTERLUDE

 Rhythm                     x2            x2
|-0--0--0--0--2--2--3--3p2--2-|-0--0--0--0--|
|-0--0--0--0--3--3--3--3----3-|-1--1--1--1--|
|-1--1--1--1--2--2--2--2----2-|-0--0--0--0--|
|-2--2--2--2--0--0--0--0----0-|-2--2--2--2--|
|-2--2--2--2------------------|-3--3--3--3--|
|-0--0--0--0------------------|-------------|


 Lead
|----------------------------------|
|-12----12-----------12------------|
|----13----13-----13----13--12-11--|
|--------------14------------------|
|----------------------------------|
|----------------------------------|

|----------------12-16-12-15-14--|
|-12----------15-----------------|
|----13----13--------------------|
|-------14-----------------------|
|--------------------------------|
|--------------------------------|

|--------------|
|--------------|
|-12-11-12-----|
|----------12--|
|--------------|
|--------------|

|-----------|
|-----------|
|-12-11-----|
|-------14--|
|-----------|
|-----------|


SOLO

 Rhythm   x7                     x8
|---------0-|----------|---------0-|
|---------0-|----------|---------0-|
|---------X-|----------|---------X-|
|-5/7-7-7-2-|-5-7---9--|-5/7-7-7-2-|
|-5/7-7-7-2-|-5-7---9--|-5/7-7-7-2-|
|-3/5-5-5-0-|-3-5-0-7--|-3/5-5-5-0-|


 Lead
|---------------------------17b19r17p15-17b19b19b19b19-14b15r14------------------|
|-17b19--17b19r17p15-17b19-------------------------------------------------------|
|---------------------------------------------------------------12-14-12-14b16~~-|
|--------------------------------------------------------------------------------|
|--------------------------------------------------------------------------------|
|--------------------------------------------------------------------------------|

|-------------------------------------------------------------------------17b19~-|
|-15b17--15b17r15p12---------------------------------------17b19r17b19r17--------|
|--------------------14b16gr14p12h14p12-----------14b16r14-----------------------|
|---------------------------------------14p12------------------------------------|
|---------------------------------------------14---------------------------------|
|--------------------------------------------------------------------------------|


END OF SOLO
                               1.        2.
|-----------------------------|-22b24~~-|---------|
|-----------------------------|---------|---------|
|-----------------------------|---------|---------|
|-----------------------------|-7-------|-7-------|
|-2p0-----2p0-----2p0---------|-7-------|-7-------|
|-----3p0-----3p0-----3p0-3p0-|-5-------|-5////12-|
                                ^rhythm plays the chord and lead plays the high note


INTERLUDE
                      x2
|-----------------------|
|-7--------9----10p9----|
|-7--------9----9-------|
|-7--------9----9-------|
|-5--------7----7-------|
|-----------------------|


|--------------|---------0----|--------------|----------|
|---------0----|--------------|---------0----|----------|
|-------0------|-------0------|-------0------|----------|
|-----4--------|-----4--------|-----4--------|----------|
|---2----------|---2----------|---2----------|----------|
|-0------------|-0------------|-0------------|-0--------|

                x4
|-0--0--0--0--0-0-|
|-8--8--8--8--8-8-|
|-7--7--7--7--7-7-|
|-6--6--6--6--6-6-|
|-7--7--7--7--7-7-|
|-0--0--0--0--0-0-|

OUTRO

         x23
|---------0-|
|---------0-|
|---------X-|
|-5/7-7-7-2-|
|-5/7-7-7-2-|
|-3/5-5-5-0-|

End on
|--------(0)---|
|--------(0)---|
|---------9----|
|-5/7-7-7-9----|
|-5/7-7-7-7----|
|-3/5-5-5-0----|

==rhinoceros==
In addition to distortion, for this gorgeous slow-burn ballad, you’ll need some kind of 
effect.

Tuning: E A D G B E


INTRO

 Guitar 1       x8
|-----------------|
|-----------------|
|-----9--9/11-11--|
|-----------------|
|-----7--7/9--9---|
|-0-0-------------|

 Guitar 2
|-----0-----------0-----------0-----0----0------0--------------0---------0--|
|---0-----------0---0-------0-----0----0------0--------------0---------0----|
|-2-----1---1h2-------2---7-----6----4-----/11----9-----9h11-----11/13------|
|---------------------------------------------------------------------------|
|---------------------------------------------------------------------------|
|---------------------------------------------------------------------------|

 ------0-----0-----0----0-------0-----0----0-----0-------0-4p0--------------|
 ----0-----0-----0----0-------0-----0----0-----0-------0-------0---------0--|
 -14----13----11----9-----/13----11----9-----7-------2-----------2----2-----|
 --------------------------------------------------4---------------4--------|
 ---------------------------------------------------------------------------|
 ---------------------------------------------------------------------------|

 -0----|
 -0----|
 -1----|
 -2----|
 -2----|
 -0----|


VERSE
                                      x2
|---------------------------------0-----|
|---------------------------------0-----|
|-----9--9/11-11------9--13-11-9--11----|
|--------------------------------(0)----|
|-----7--7/9--9-------7--11-9--7--9-----|
|-0-0-------------0-0-------------10----|


BRIDGE

 Rhythm         x4
|-----------------|
|-----------------|
|-----9--9/11-11--|
|-----------------|
|-----7--7/9--9---|
|-0-0-------------|


 Lead
|-------------------------------------------------------------------|
|-------------------------------------------------------------------|
|-14/16-16-16-16/19-19-19-19\16-16-16-16\14-14-14-14\13-13-13-13\11-|
|-------------------------------------------------------------------|
|-12/14-14-14-14/17-17-17-17\14-14-14-14\12-12-12-12\11-11-11-11\9--|
|-------------------------------------------------------------------|

 -------------------------------------------------------------------|
 -------------------------------------------------------------------|
 -11-11-11/13-13-13-13/14-14-14-14/16-16-16-16/19-19-19-19\16-16-16-|
 -------------------------------------------------------------------|
 -9--9--9-/11-11-11-11/12-12-12-12/14-14-14-14/17-17-17-17\14-14-14-|
 -------------------------------------------------------------------|

 --------------------------------------------------|
 --------------------------------------------------|
 -16\14-14-14-14\13-13-13-13\11-11-11-11/13--------|
 --------------------------------------------------|
 -14\12-12-12-12\11-11-11-11\9--9--9--9-/11--------|
 --------------------------------------------------|


VERSE 2
                                      x2
|---------------------------------0-----|
|---------------------------------0-----|
|-----9--9/11-11------9--13-11-9--11----|
|--------------------------------(0)----|
|-----7--7/9--9-------7--11-9--7--9-----|
|-0-0-------------0-0-------------10----|


CHORUS
           x4
|-0--3--0----|-0--3--|
|-1--3--3----|-1--3--|
|-0--0--2----|-0--0--|
|-2--0--0----|-2--0--|
|-3--2-------|-3--2--|
|----3-------|----3--|


INTERLUDE

 Guitar 1       x8
|-----------------|
|-----------------|
|-----9--9/11-11--|
|-----------------|
|-----7--7/9--9---|
|-0-0-------------|

 Guitar 2
|------------0------------0------0------0------0------0------0---------|
|----------0-------0----0------0------0------0------0------0-----------|
|-2-1----1-------1---/7------9-----11-----13-----14-----16-----/19~~~~-|
|----------------------------------------------------------------------|
|----------------------------------------------------------------------|
|----------------------------------------------------------------------|

 ------0-----0-----0----0-------0-----0----0-----0-------0-4p0--------------|
 ----0-----0-----0----0-------0-----0----0-----0-------0-------0---------0--|
 -14----13----11----9-----/13----11----9-----7-------2-----------2----2-----|
 --------------------------------------------------4---------------4--------|
 ---------------------------------------------------------------------------|
 ---------------------------------------------------------------------------|

 -0----|
 -0----|
 -1----|
 -2----|
 -2----|
 -0----|


VERSE 3
                                      x2
|---------------------------------0-----|
|---------------------------------0-----|
|-----9--9/11-11------9--13-11-9--11----|
|--------------------------------(0)----|
|-----7--7/9--9-------7--11-9--7--9-----|
|-0-0-------------0-0-------------10----|


CHORUS 2 - With distortion

           x4
|-0--3--0----|-0--3--|
|-1--3--3----|-1--3--|
|-0--0--2----|-0--0--|
|-2--0--0----|-2--0--|
|-3--2-------|-3--2--|
|----3-------|----3--|


SOLO

 Rhythm                            x4
|------------------------------------|
|------------------------------------|
|-------------------5-5-5-5/7-7------|
|-7-7-5-7---5-7-5---5-5-5-5/7-7---5--|
|-7-7-5-7---5-7-5---3-3-3-3/5-5---5--|
|-5-5-3-5---3-5-3---------------0-3--|


 Lead (*=artificial harmonic)
|-----------------------------------------------------------------------|
|------------------------------------------------------------------////-|
|-*14b16r14-12~~--11b12r11--7b9r7p5--------------------------------////-|
|-----------------------------------7p5---*5b7---------------------////-|
|-----------------------------------------------------------------------|
|-----------------------------------------------*5-*5-*3-*5~~~~---------|

 -----------------------------------------------------------------------|
 -15h17p15h17p15h17p15h17p15h17p15--------------------------------------|
 ----------------------------------16-14h16p14h16p14h16p14h16p14h16p14--|
 -----------------------------------------------------------------------|
 -----------------------------------------------------------------------|
 -----------------------------------------------------------------------|

 ------------------------------------------------------15b17b17-17~~~~--|
 -------------------15b17~~-15b17r15-12h13p12h13p12---------------------|
 -16gb17r16-14~~~~----------------------------------14------------------|
 -----------------------------------------------------------------------|
 -----------------------------------------------------------------------|
 -----------------------------------------------------------------------|

 -17-21-21b22r21--17p15h17~~~~-|
 ------------------------------|
 ------------------------------|
 ------------------------------|
 ------------------------------|
 ------------------------------|


BRIDGE 2
|-------------------------------------------------------------------|
|-------------------------------------------------------------------|
|-14/16-16-16-16/19-19-19-19\16-16-16-16\14-14-14-14\13-13-13-13\11-|
|-------------------------------------------------------------------|
|-12/14-14-14-14/17-17-17-17\14-14-14-14\12-12-12-12\11-11-11-11\9--|
|-------------------------------------------------------------------|

 ---------------------0------------------------------------|
 ---------------------0------------------------------------|
 -11-11-11/13--11--9--11----11b12r11b12r11b12r11b12r11~~~~-|
 ---------------------0------------------------------------|
 -9--9--9-/11--9---7--9------------------------------------|
 ---------------------10-----------------------------------|


|-------------------------------------------------------------------|
|-------------------------------------------------------------------|
|-14/16-16-16-16/19-19-19-19\16-16-16-16\14-14-14-14\13-13-13-13\11-|
|-------------------------------------------------------------------|
|-12/14-14-14-14/17-17-17-17\14-14-14-14\12-12-12-12\11-11-11-11\9--|
|-------------------------------------------------------------------|

 ---------------------0-----------------|
 ---------------------0-----------------|
 -11-11-11/13--11--9--11----------------|
 ---------------------0-----------------|
 -9--9--9-/11--9---7--9-----------------|
 ---------------------10----------------|


INTERLUDE 2
|---------------------------------------0----------|
|---------------------------------------0----------|
|-----9---9-----9---9-----9--13--11--9--11---------|
|---------------------------------------0-----X\\\-|
|-----7---7-----7---7-----7--11--9---7--9-----X\\\-|
|-0-0-------0-0-------0-0---------------10----X\\\-|

|---------------------------------------0-----|
|---------------------------------------0-----|
|-----9---9-----9---9-----9--13--11--9--11----|
|---------------------------------------0-----|
|-----7---7-----7---7-----7--11--9---7--9-----|
|-0-0-------0-0-------0-0---------------10----|


CHORUS 3/OUTRO

           x9
|-0--3--0----|
|-1--3--3----|
|-0--0--2----|
|-2--0--0----|
|-3--2-------|
|----3-------|

 Lead                               x4
|-2-3-2h3p2-0-------------------------|
|-------------3~~----0-1-0------------|
|------------------2-------2-0--------|
|------------------------------4-2-0--|
|-------------------------------------|
|-------------------------------------|


==bury me==
Thanks to Julia Harrison for the bass tab.

Tuning: E A D G B E


BASS INTRO
|-----------------------------|
|-----------------------------|
|-3h5-5-5-5p3-3-----------3-3-|
|---------------1-3-3-3/5-----|

Hit and sustain this
|------|
|------|
|-7----|
|-7----|
|-5----|
|------|

                        x8
|---------x-x-x-x-x-x-x-x-|
|---------x-x-x-x-x-x-x-x-|
|-7-7-7-7-x-x-x-x-x-x-x-x-|
|-7-7-7-7-x-x-x-x-x-x-x-x-|
|-5-5-5-5-x-x-x-x-x-x-x-x-|
|---------x-x-x-x-x-x-x-x-|


Hit and sustain this
|------|
|------|
|-7----|
|-7----|
|-5----|
|------|

 Lead
|-10------------|
|-------13--12--|
|---------------|
|---------------|
|---------------|
|---------------|

                        x2
|---------x-x-x-x-x-x-x-x-|
|---------x-x-x-x-x-x-x-x-|
|-7-7-7-7-x-x-x-x-x-x-x-x-|
|-7-7-7-7-x-x-x-x-x-x-x-x-|
|-5-5-5-5-x-x-x-x-x-x-x-x-|
|---------x-x-x-x-x-x-x-x-|

Hit and sustain this
|------|
|------|
|-7----|
|-7----|
|-5----|
|------|

 Lead
|-10------------|
|-------13--12--|
|---------------|
|---------------|
|---------------|
|---------------|

                        x2
|---------x-x-x-x-x-x-x-x-|
|---------x-x-x-x-x-x-x-x-|
|-7-7-7-7-x-x-x-x-x-x-x-x-|
|-7-7-7-7-x-x-x-x-x-x-x-x-|
|-5-5-5-5-x-x-x-x-x-x-x-x-|
|---------x-x-x-x-x-x-x-x-|


BRIDGE
|--------------------------------------------------------|
|---------------------------------------------------7----|
|-----2-----2-----2-----2-----2-----2-----2-----2---7----|
|---0-----0-----0-----0-----0-----0-----0-----0-----7----|
|-0-----------0-----------0-----------0-------------5----|
|-------4-----------4-----------4-----------4------------|


VERSE
                         x12
|---------------------------|
|---------------------------|
|---------------------------|
|---------------------------|
|-3h5-5-5-5p3-----------3-3-|
|-------------1-3-3-3h5-----|
  .........................

 Guitar 1
|----------|
|----------|
|-2--------|
|-2--------|
|-0--------|
|----------|
|Guitar 2
|----------|
|----------|
|-13gb14---|
|----------|
|----------|
|----------|


CHORUS
                          3x
|---------------------------|-----------|
|---------------------------|-----------|
|-5/7-7-7-7\5-----------5-5-|------5----|
|-5/7-7-7-7\5-3-5-5-5/7-5-5-|-7----5----|
|-3/5-5-5-5\3-3-5-5-5/7-3-3-|-7----3----|
|-------------1-3-3-3/5-----|-5---------|

                          3x
|---------------------------|-----------|
|---------------------------|-----------|
|-5/7-7-7-7\5-----------5-5-|------5----|
|-5/7-7-7-7\5-3-5-5-5/7-5-5-|-7----5----|
|-3/5-5-5-5\3-3-5-5-5/7-3-3-|-7----3----|
|-------------1-3-3-3/5-----|-5---------|


PRE SOLO

 Guitar 1
|-----------|
|-----------|
|-7-7-7-7-7-| Mute strings after playing
|-7-7-7-7-7-|
|-5-5-5-5-5-|
|-----------|
|Guitar 2
|-----------|
|-----------|
|-12b14~~~~-|
|-----------|
|-----------|
|-----------|

 Guitar 1
|-----------|
|-----------|
|-7---------| Sustain this one..
|-7---------|
|-5---------|
|-----------|
|Guitar 2
|-----------|
|-----------|
|-10~~~~----|
|-----------|
|-----------|
|-----------|

 Guitar 1
|-----------|
|-----------|
|-7-7-------| Mute again...
|-7-7-------|
|-5-5-------|
|-----------|
|Guitar 2
|--------------------------------------------|
|--------------------------------------------|
|-12-12--12-12--12-12--12-12--10h12p10h12p10-|
|-12-12--12-12--12-12--12-12-----------------|
|--------------------------------------------|
|--------------------------------------------|

 Guitar 1
|-----------|
|-----------|
|-7---------| Sustain again....
|-7---------|
|-5---------|
|-----------|
|Guitar 2
|-----------|
|-----------|
|-12b14~~~~-|
|-----------|
|-----------|
|-----------|


SOLO

 Rhythm                   x4
|---------------------------|
|---------------------------|
|-5/7-7-7-7\5-----------5-5-|
|-5/7-7-7-7\5-3-5-5-5/7-5-5-|
|-3/5-5-5-5\3-3-5-5-5/7-3-3-|
|-------------1-3-3-3/5-----|

|-------------------------------------------------|
|-------------------------------------------------|
|-----2-----2-----2-----2-----2-----2-----2-----2-|
|---0-----0-----0-----0-----0-----0-----0-----0---|
|-0-----------0-----------0-----------0-----------|
|-------4-----------4-----------4-----------4-----|


 Lead (*=Artificial harmonic)
|-------------------------12gb13~~-12p10-------13b15--10h13p10----10-----------|
|-10h11p10h13b15--*13b15-----------------13p10-----------------13----13p10-----|
|--------------------------------------------------------------------------12--|
|------------------------------------------------------------------------------|
|------------------------------------------------------------------------------|
|------------------------------------------------------------------------------|

                                              (X=tremolo pick this like crazy)
 ---------------------------------------------20XXXXXXXXXXXXXXXXXXXXXXXXXXXXX--|
 -----------------------------------*13~~~~------------------------------------|
 -10-12-*12b14-*12b14-*12b14-*12b14--------------------------------------------|
 ------------------------------------------------------------------------------|
 ------------------------------------------------------------------------------|
 ------------------------------------------------------------------------------|

 -0----5p4p0-5p4p0-4p2p0-4p2p0------------------------------|
 ------------------------------3p2p0-3p2p0-2b3r2p0-5gb7~~~~-|
 -----------------------------------------------------------|
 -----------------------------------------------------------|
 -----------------------------------------------------------|
 -----------------------------------------------------------|


CHORUS 2
                          3x
|---------------------------|-----------|
|---------------------------|-----------|
|-5/7-7-7-7\5-----------5-5-|------5----|
|-5/7-7-7-7\5-3-5-5-5/7-5-5-|-7----5----|
|-3/5-5-5-5\3-3-5-5-5/7-3-3-|-7----3----|
|-------------1-3-3-3/5-----|-5---------|

                          3x
|---------------------------|-----------|
|---------------------------|-----------|
|-5/7-7-7-7\5-----------5-5-|------5----|
|-5/7-7-7-7\5-3-5-5-5/7-5-5-|-7----5----|
|-3/5-5-5-5\3-3-5-5-5/7-3-3-|-7----3----|
|-------------1-3-3-3/5-----|-5---------|

|------------------------------|
|------------------------------|
|-7----5----4----3----2--------|
|-7----5----4----3----2--------|
|-5----3----2----1----0--------|
|------------------------------|


INTERLUDE
                       x4
|------------------------|
|------------------------|
|-------------0----------|
|-------15------15----15-|
|----15----15------15----|
|-13---------------------|
  ...........   ........

         x28
|-----------|
|-----------|
|-0----0----|
|-3----5----|
|-3----5----|
|-1----3----|

End on
|------|
|------|
|-0----|
|-3----|
|-3----|
|-1----|


Lead                          x4
|-------------------------------|
|-------------------------------|
|---10p8------------------------|
|-------------------------------|
|-8------10--10-10-10-10b12r10--|
|-------------------------------|

                                               x12
|-------------------------------------------------|
|-11p10----10-13p10----11-11-11-11-11-11p10----10-|
|-------10----------10----------------------10----|
|-------------------------------------------------|
|-------------------------------------------------|
|-------------------------------------------------|


|---------------------------------------------------------------------------|
|-11\10-10-10-10------------------------------------------------------------|
|----------------12-12-12-12p10-10-10p9-9-9---------------------------------|
|-------------------------------------------12-12-12-12-10-10-10-10\8-8-8-8-|
|---------------------------------------------------------------------------|
|---------------------------------------------------------------------------|

 ---------------------------------------------------------------------------|
 -----------------------------------------------------------13-13-13-13~~~~-|
 ---------------------------9-9-9-9-10-10-10-10-12-12-12-12-----------------|
 -8/10-10-10-10-12-12-12-12-------------------------------------------------|
 ---------------------------------------------------------------------------|
 ---------------------------------------------------------------------------|

 ---------------------------------------------------------------------------|
 -11p10-11p10-11-11-11-11b13~~----------------------------------------------|
 ------------------------------10~~-----------------------------------------|
 -----------------------------------10--------------------------------------|
 --------------------------------------13-13p12-12p10-10/12-12/13~-15-13-12-|
 ---------------------------------------------------------------------------|

 --------------|
 --------------|
 --------------|
 --------------|
 -8gb10gr8~~~~-|
 --------------|

==crush==

Acoustic time! Be sure to tune down half a step. If using an amp, a fast rotary effect 
well here. For the electric leads, compression is all you need.

Tuning: Eb Ab Db Gb Bb Eb


BASS
|-------------0-2-|
|-------0-2-4-----|
|-0-2-4-----------|
|-----------------|


INTRO - Alternate between lead fills

Bmb6/E Dsus Asus
Bmb6/E Dsus Asus


Lead Fill 1
|----------------------|
|-15-14----------------|
|-------14-16----16-14-|
|-------------14-------|
|----------------------|
|----------------------|

Lead Fill 2
|-------------------------|
|-15-14-------17-15-14----|
|-------14-16----------14-|
|-------------------------|
|-------------------------|
|-------------------------|


VERSE - Alternate between lead fills

Bmb6/E Dsus Asus
Bmb6/E Dsus Asus
Bmb6/E Dsus Asus
Bmb6/E Dsus Asus Asus


CHORUS
G Dsus Asus
G Dsus Asus
G Dsus Asus
G Dsus Asus Bmb6/E Dsus


BRIDGE
G Asus2

 Lead
|-------------------------|
|-------------------------|
|-14-16-14----------------|
|----------14-17----14----|
|-------------------------|
|-------------------------|


VERSE 2 - Alternate between lead fills

Bmb6/E Dsus Asus
Bmb6/E Dsus Asus
Bmb6/E Dsus Asus
Bmb6/E Dsus Asus Asus


CHORUS 2
G Dsus Asus
G Dsus Asus
G Dsus Asus
G Dsus Asus Bmb6/E Dsus


 Lead
|---------------|
|---------------|
|---------------|
|-16\14---------|
|--------17\16--|
|---------------|

|------------------|
|-------14-15-14~~-|
|-14-16------------|
|------------------|
|------------------|
|------------------|

|------------------|
|-------14-15-17~~-|
|-14-16------------|
|------------------|
|------------------|
|------------------|

|------------------------------|
|-17-14-15-14~~----------------|
|---------------14h16p14h16p14-|
|------------------------------|
|------------------------------|
|------------------------------|

|---------------------------------|
|-15-14-14--14-15-17--17b19-19r17-|
|---------------------------------|
|---------------------------------|
|---------------------------------|
|---------------------------------|


BRIDGE 2
Bmb6/E Dsus Bmb6/E Dsus

 Lead
|--------------------------------|
|----14-----------------14-------|
|-16----16-14---16---16----16-14-|
|--------------------------------|
|--------------------------------|
|--------------------------------|


OUTRO
Bmb6/E Dsus Asus

 Lead
|----------------------|
|-15-14----------------|
|-------14-16----16-14-|
|-------------14-------|
|----------------------|
|----------------------|


Chords:
 Asus Bmb6/E Dsus G
|-0----0------0---3--|
|-0----3------3---3--|
|-2----0------2---0--|
|-2----4------0---0--|
|-0----2----------2--|
|------0----------3--|


==suffer==

Use fast rotary, tremolo and mild distortion to reproduce the sounds in this song.

Tuning: E A D G B E


INTRO

 Rhythm            x8
|--0---0-0-0-0-0-0-0-|
|--3---3-3-3-3-3-3-3-|
|--3p2-2-2-2-2-2-2-2-|
|--0---0-0-0-0-0-0-0-|
|--------------------|
|--------------------|

 Lead (*=harmonics)
|-------------------------------|
|---------------------------*7*-|
|-*7*--------*7*--------*7*-----|
|-------------------*7*---------|
|-------------------------------|
|-------------------------------|


VERSE
                   x8
|--0---0-0-0-0-0-0-0-|
|--3---3-3-3-3-3-3-3-|
|--3p2-2-2-2-2-2-2-2-|
|--0---0-0-0-0-0-0-0-|
|--------------------|
|--------------------|


BRIDGE
|-0----0--------|
|-1------1------|
|-0--------0----|
|-2-------------|
|-3-------------|
|---------------|

                   x2
|--0---0-0-0-0-0-0-0-|
|--3---3-3-3-3-3-3-3-|
|--3p2-2-2-2-2-2-2-2-|
|--0---0-0-0-0-0-0-0-|
|--------------------|
|--------------------|

|-0----0--------|
|-1------1------|
|-0--------0----|
|-2-------------|
|-3-------------|
|---------------|

|-2--------|
|-3--------|
|-2--------|
|-0--------|
|----------|
|----------|


CHORUS
                    x4
|--0----0----0--------|
|--3----3----3--------|
|--2----2----0--------|
|--0----0----2--------|
|-------X----2--------|
|-------1----0--------|


VERSE 2
                   x8
|--0---0-0-0-0-0-0-0-|
|--3---3-3-3-3-3-3-3-|
|--3p2-2-2-2-2-2-2-2-|
|--0---0-0-0-0-0-0-0-|
|--------------------|
|--------------------|


BRIDGE 2
|-0----0--------|
|-1------1------|
|-0--------0----|
|-2-------------|
|-3-------------|
|---------------|

                   x2
|--0---0-0-0-0-0-0-0-|
|--3---3-3-3-3-3-3-3-|
|--3p2-2-2-2-2-2-2-2-|
|--0---0-0-0-0-0-0-0-|
|--------------------|
|--------------------|

|-0----0--------|
|-1------1------|
|-0--------0----|
|-2-------------|
|-3-------------|
|---------------|

|-2--------|
|-3--------|
|-2--------|
|-0--------|
|----------|
|----------|


INTERLUDE
|-------------------2-----------------------2------------------2----0----|
|-------3-------------0---------3-------------0---------3------0----3----|
|-----0---0-------0-----0-----0---0-------0-----0-----0---0----0----2----|
|---2-------2---0-----------2-------2---0-----------2-------2--0----0----|
|-3-----------2-----------3-----------2-----------3------------2---------|
|------------------------------------------------------------------------|

 Guitar 1
|-0------------|
|-3------------|
|-2------------|
|-0------------|
|--------------|
|--------------|
|Guitar 2
|-----2--------|
|---1----------|
|-2------------|
|--------------|
|--------------|
|--------------|

          x2
|-0----0----|
|-1----3----|
|-0----2----|
|-2----0----|
|-3---------|
|-----------|


 Lead...
|------15\(14)\-----12-14-15-14h15p14~~--17\15p14h15p14~~-12-14-15-14-12------|
|-15~~-----------15------------------------------------------------------15~~-|
|-----------------------------------------------------------------------------|
|-----------------------------------------------------------------------------|
|-----------------------------------------------------------------------------|
|-----------------------------------------------------------------------------|


OUTRO
                   x2
|-0------------0--3--|
|-3------------1--3--|
|-2------------0--0--|
|-0------------2--0--|
|--------------3--2--|
|-----------------3--|

                   x4
|-0--------0----3----|
|-3--------1----3----|
|-2--------0----0----|
|-0--------2----0----|
|----------3----2----|
|---------------3----|

End on
|-------------------2-----------------------2------------------2----|
|-------3-------------0---------3-------------0---------3------0----|
|-----0---0-------0-----0-----0---0-------0-----0-----0---0----0----|
|---2-------2---0-----------2-------2---0-----------2-------2--0----|
|-3-----------2-----------3-----------2-----------3------------2----|
|-------------------------------------------------------------------|


==snail==

Tuning: E A D G B E


INTRO

Strum on this for a bit
|-0-|
|-2-|
|-2-|
|-2-|
|-0-|
|---|

                   x3
|-0----0----3--------|
|-2----3----3--------|
|-2----0----0--------|
|-2----2----0--------|
|-0----2----2--------|
|------0----3--------|


2nd time play this lead
|-----------------|
|-2h3-3/5-5/7b8r7-|
|-----------------|
|-----------------|
|-----------------|
|-----------------|

3rd time play this lead
|-2h3-3/5-5/7-5---|
|-----------------|
|-----------------|
|-----------------|
|-----------------|
|-----------------|


Repeat this riff with mild distortion
                    x2.5
|-----------------------|
|-2-2-2-2---2-2-2-2-2---|
|-2-2-2-4p2-2-2-2-2-2---|
|-2-2-2-2---2-2-2-2-2h4-|
|-0-0-0-0---0-0-0-0-0---|
|-----------------------|

Enter distortion on G and then D/F# chords


SOLO
A A A G D/F#

 Lead
|----------------------------------------------------------|
|----------------------------------------------------------|
|-----------------------------------/9b11r9~~~~--7-6-------|
|--11~~~~--9-11-11b12r11p9h11p9\7-9------------------7~~~~-|
|----------------------------------------------------------|
|----------------------------------------------------------|


VERSE
A A A G
A A A G


CHORUS
A A G D/F#
A A G D/F#
A A G D/F#
A A G D/F#
A A G D/F# G


SOLO 2
A A A G D/F#
A A A G D/F#

 Lead
|-(12)~~~~~~~---------------------------------------------|
|---------------------------------------------------------|
|-9~~~~~~~~~~--6~~h7p6\4/6~~--4/6~~--6h7p6-----/9-/11~~~~-|
|------------------------------------------9-7------------|
|---------------------------------------------------------|
|---------------------------------------------------------|

 -------------------9~~~~--/12----------(12)gb14gr12~~~~-|
 -10~~~~-8h10p8\7h8------------12~~b14-------------------|
 --------------------------------------------------------|
 --------------------------------------------------------|
 --------------------------------------------------------|
 --------------------------------------------------------|


VERSE 2 - Pick notes from these undistorted chords
A G A G A G Dsus/F# G


CHORUS 2
A A G D/F#
A A G D/F#
A A G D/F#
A A G D/F#
A A G D/F# A


OUTRO
                            x24
|------------------------------|
|------------------------------|
|------0-----0-----------------|
|----9-----0---11-12-11-9-11-9-|
|-10-----9-----0--0--0--0-0--0-|
|------------------------------|

End on
|-0----|
|-2----|
|-2----|
|-2----|
|-0----|
|------|


 Lead (*=artificial harmonic)
|----------------------------------------12b14-*12~~--9p7-------------------|
|-----------------------------12b14-10~~------------------10-10p8p7\\\------|
|-12~~-14~~~~-------------9~~-----------------------------------------------|
|--------------------9-11----------------------------------------------X\\\-|
|-10~~-12~~~~--10-12---------------------------------------------------X\\\-|
|----------------------------------------------------------------------X\\\-|
                                                             pick slide^


Chords:
  A  D/F# Dsus/F# G
|-0---------0-----3--|
|-2---3-----3-----3--|
|-2---2-----2-----0--|
|-2---0-----0-----0--|
|-0---X-----X-----2--|
|-----2-----2-----3--|


==tristessa==

Tuning: E A D G B E


INTRO/VERSE
                          x16
|----------------------------|
|----------------------------|
|--------13-13---------11-11-|
|----------------------------|
|--------11-11---------9--9--|
|-0--0-0----12--0--0-0----10-|


CHORUS
                                x8
|---------------------------------|
|---------------------------------|
|---------------------------------|
|---------------------------------|
|-7-7-7-5-7-7-5-7-7-5-7-5-7-5-7-5-|
|-0-0-0-0-0-0-0-0-0-0-0-0-0-0-0-0-|
  ...............................


VERSE 2
                           x8
|----------------------------|
|----------------------------|
|--------13-13---------11-11-|
|----------------------------|
|--------11-11---------9--9--|
|-0--0-0----12--0--0-0----10-|


CHORUS 2
                                x8
|---------------------------------|
|---------------------------------|
|---------------------------------|
|---------------------------------|
|-7-7-7-5-7-7-5-7-7-5-7-5-7-5-7-5-|
|-0-0-0-0-0-0-0-0-0-0-0-0-0-0-0-0-|
  ...............................


BRIDGE
                                                   x2
|----------------------------------------------------|
|----------------------------------------------------|
|----------------------------------------5--5--5--5--|
|-2--2-2-5--5-5-7----8-7-5-2--2-2-5--5-5-5--5--5--5--|
|-2--2-2-5--5-5-7----8-7-5-2--2-2-5--5-5-3--3--3--3--|
|-0--0-0-3--3-3-5----6-5-3-0--0-0-3--3-3-------------|

|---------------------|
|---------------------|
|-4----2----4----2----|
|-4----2----4----2----|
|-2----0----2----0----|
|---------------------|


SOLO

 Rhythm                   x12
|----------------------------|
|----------------------------|
|--------13-13---------11-11-|
|----------------------------|
|--------11-11---------9--9--|
|-0--0-0----12--0--0-0----10-|


 Lead
|-------------------------------------------17-17-16~~-----------|
|-17-17-17-15-17-17-17-15-17-17-17-15-17-17------------19b21~~~~-|
|----------------------------------------------------------------|
|----------------------------------------------------------------|
|----------------------------------------------------------------|
|----------------------------------------------------------------|

 ----------------------------------------------------------------|
 ----------------------------------------------------------------|
 -13~~-13h14p13----13~~------------13-13--13-14-14--14-16~~\\\\--|
 ---------------16-------16-16--16-------------------------------|
 ----------------------------------------------------------------|
 ----------------------------------------------------------------|

 ----------------------------------------------------------------|
 ----------------------------------------------------------------|
 ----16\14----14\13----13-13h14p13----13-------------------------|
 ----------------------------------16----16b18r16~~-14h16p14\12--|
 -14-------12-------11-------------------------------------------|
 ----------------------------------------------------------------|

 ----------------------------------------------------------------|
 ----------------------------------------------------------------|
 ----------------------------------14-14--14-13-13--13-11-11--11-|
 -12h14p12\11-11h12p11\9-9h11p9\7--------------------------------|
 ----------------------------------12-12--12-11-11--11-9--9---9--|
 ----------------------------------------------------------------|

 ----------------------------------------------------------------|
 ----------------------------------------------------------------|
 -13-13--13-14-14--14-13-13--13-14-14-13-13-11-11-13-13----------|
 ----------------------------------------------------------------|
 -11-11--11-12-12--12-11-11--11-12-12-11-11-9--9--11-11----------|
 -------------------------------------------------------0\\\///--|
                                              (bar dive)^


VERSE 3
                          x12
|----------------------------|
|----------------------------|
|--------13-13---------11-11-|
|----------------------------|
|--------11-11---------9--9--|
|-0--0-0----12--0--0-0----10-|


CHORUS 3
                                x8
|---------------------------------|
|---------------------------------|
|---------------------------------|
|---------------------------------|
|-7-7-7-5-7-7-5-7-7-5-7-5-7-5-7-5-|
|-0-0-0-0-0-0-0-0-0-0-0-0-0-0-0-0-|
  ...............................

End on
|-----------------|
|-----------------|
|--------13-13----|
|-----------------|
|--------11-11----|
|-0--0-0----12----|


==window paine==

The hushed opening section uses a slow tremolo, but about 3 minutes in, turn on the Big Muff.

Tuning: E A D G B E


INTRO
|-0------------------|
|-0------------------|
|-1------------------|
|-2------------------|
|-2------------------|
|-0------------------|


Bass
|--------------------|
|--------------------|
|--------------------|
|-7-0--7-0--7-0--7-0-|


VERSE
 Lead                                                x2
|------------------------------------------------------|
|----------5b6r5---------------------------------------|
|-4gb5r4-----------------------------------------------|
|------------------7---6-------------------------------|
|--------------------------7b8r7-----5----7-----5----7-|
|----------------------------------0----0-----0----0---|


CHORUS
|-0--0--0----------0--0-----------0--0--0----------0--3----0----|
|-3--0----0--------3--0-----------3--0----0--------3--3----0----|
|-2--1------1------2--1------1----2--1------1------2--0----2----|
|-0--2--------2----0--2----2------0--2--------2----0--0----2----|
|----2----------------2--2-----------2----------------2----0----|
|----0----------------0--------------0----------------3---------|


VERSE 2

      x4        x4
|-0--0--|-0-0-0-0-|
|-3--0--|-3-3-3-0-|
|-2--1--|-2-2-2-1-|
|-0--2--|-0-0-0-2-|
|----2--|-------2-|
|----0--|-------0-|


 Lead                                      x2
|--------------------------------------------|
|----------5b6r5-----------------------------|
|--------------------------------------------|
|--------------------------------------------|
|---------------------------7b8r7------------|
|--------------------------------------------|


BRIDGE - More distortion

      x7
|-0--0--|-0--3--0--0--|
|-3--0--|-3--3--0--0--|
|-2--1--|-2--0--2--1--|
|-0--2--|-0--0--2--2--|
|----2--|----2--0--2--|
|----0--|----3-----0--|


INTERLUDE - Gradually increase the tempo

          x13
|-0--0--0--0-|
|-3--3--0--0-|
|-2--2--1--1-|
|-0--0--2--2-|
|-0--2--2--2-|
|-------0--0-|


 Lead
|----------------------------------------------------------------------|
|----------------------------------------------------------------------|
|-14-13-14-13-------14-13-14-13-14b16~~--14-13-14-13-------------------|
|-------------14~~-----------------------------------14\12~~-----------|
|-------------------------------------------------------------12h15p12-|
|----------------------------------------------------------------------|

 ----------------------------------------------------------------------|
 ----------------------------------------------------------------------|
 -----------------------13h14p13h14-13-13--13h14p13\11--13p11p9-11b13--|
 -16b18r16~~~~-16b18r16------------------------------------------------|
 ----------------------------------------------------------------------|
 ----------------------------------------------------------------------|

 -12~~~----------------------------------------17b19gr17~~~~-----------|
 --------------14h15p14-------14h15p14-17~~~~--------------------------|
 -9~~~~--16b18----------16b18------------------------------------------|
 --------------------------------------------------------------X\\\----|
 --------------------------------------------------------------X\\\----|
 --------------------------------------------------------------X\\\----|
                                                     pick slide^

 -19p17h19p17h19b21r19b21~~~~--(17)b19~~~~-------|
 ------------------------------------------------|
 ------------------------------------------------|
 -------------------------------------------X\\\-|
 -------------------------------------------X\\\-|
 -------------------------------------------X\\\-|
                                  pick slide^


End with this..
|-0--0--0----|
|-0--0--0----|
|-1--1--1----|
|-2--2--2----|
|-2--2--2----|
|-0--0--0----|


CHORUS 2 - Guitars tacet until these final chords..
|-3--0--0--|
|-3--0--0--|
|-0--2--1--|
|-0--2--2--|
|-2--0--2--|
|-3-----0--|


OUTRO
         x12
|-0----0----|
|-0----2----|
|-1----3----|
|-2----0----|
|-2---------|
|-0---------|


|-------------------------------------------------------------|
|-------------------------------------------------------------|
|-14-14-13~~--13-13-11~~--11-11-11/13~~--13-13-13/14-14-14/16-|
|-------------------------------------------------------------|
|-12-12-11~~--11-11-9~~~--9--9--9-/11~~--11-11-11/12-12-12/14-|
|-------------------------------------------------------------|

 -----------------------------|
 -----------------------------|
 -16/19~~~~~~~~gb21~~~~-------|
 ------------------------X\\\-|
 -14/17~~~~~~~~gb19~~~~--X\\\-|
 ------------------------X\\\-|
             (pick slide)^


End on this
|-0----0----0----0----0--------0----|
|-0----0----0----0----0--------0----|
|-1----1----1----1----1--------1----|
|-2----2----2----2----2--------2----|
|-2----2----2----2----2--------2----|
|-0----0----0----0----0--------0----|


==daydream==

Every other tab of ‘Daydream’ on this site is wrong. The song is in an alternate tuning, 
a capo on the 2nd fret. I’ve also tabbed out the string trio for guitar, for your 
Use an electric with ebow and chorus for that if you’d like to try and reproduce it but can’t play violin.

Tuning: E A D Gb B D

CAPO ON 2nd FRET
(Open strings are relative to the capo so technically they are the 2nd fret)


VERSE
                                        x2
|-0-------0-------0-------0---0---0-------|
|-0-------0-------0-------0---0---0-------|
|-0-------0-------0-------0---0---0-------|
|-4-------2-------5-------2---4---5-------|
|-2-------0-------5-------2---4---5-------|
|-----------------3-------0---2---3-------|


BRIDGE
|-0---0---0-------|
|-0---0---0-------|
|-0---0---0-------|
|-2---4---5-------|
|-2---4---5-------|
|-0---2---3-------|


VERSE 2
                                        x2
|-0-------0-------0-------0---0---0-------|
|-0-------0-------0-------0---0---0-------|
|-0-------0-------0-------0---0---0-------|
|-4-------2-------5-------2---4---5-------|
|-2-------0-------5-------2---4---5-------|
|-----------------3-------0---2---3-------|


String arrangement for 1 guitar in standard tuning

|---------------|
|---------------|
|---------------|
|---------------|
|-12~~~~-11~~~~-|
|---------------|


BRIDGE 2
|-0---0---0-------|
|-0---0---0-------|
|-0---0---0-------|
|-2---4---5-------|
|-2---4---5-------|
|-0---2---3-------|


String arrangement for 2 guitars in standard tuning

|-12-11-9-------------|
|----------12-10-9----|
|---------------------|
|---------------------|
|---------------------|
|---------------------|
|
|---------------------|
|---------------------|
|-9--8----------------|
|-------11-9----------|
|-------------12-11---|
|---------------------|


CHORUS
|-0-------0-------0-------0---0---|
|-0-------0-------0-------0---0---|
|-0-------0-------0-------0---0---|
|-4-------2-------5-------2---4---|
|-2-------0-------5-------2---4---|
|-----------------3-------0---2---|

|-0-------0-------0-------0---0---0-------|
|-0-------0-------0-------0---0---0-------|
|-0-------0-------0-------0---0---0-------|
|-4-------2-------5-------2---4---5-------|
|-2-------0-------5-------2---4---5-------|
|-----------------3-------0---2---3-------|


String arrangement for 3 guitars in standard tuning

|---------------------------------------------------------------------|
|-9--9--9--9--9--9--9--9----------------------------------------------|
|-------------------------11----8--------------------------11---------|
|------------------------------------11--------------------------9----|
|---------------------------------------------------------------------|
|---------------------------------------------------------------------|
|
|---------------------------------------------------------------------|
|---------------------------------------------------------------------|
|---------------------------------------------------------------------|
|-11-11-11-11-11-11-11-11-9-------------------------------------------|
|------------------------------------11b12r11b12r11--------9-----11---|
|----------------------------------------------------12---------------|
|
|---------------------------------------------------------------------|
|---------------------------------------------------------------------|
|---------------------------------------------------------------------|
|---------------------------------------------------------------------|
|---------------------------------------------------------------------|
|-9--9--9--9--9--9--9--9--11----7----5---------------------2-----4----|


End on
|-------|
|-10----|
|-------|
|-------|
|-------|
|-------|
|
|-------|
|-------|
|-------|
|-11----|
|-------|
|-------|
|
|-------|
|-------|
|-------|
|-------|
|-------|
|-5-----|


==i’m going crazy==

This is the hidden bonus track. Pretty worthless if you ask me. The album could have had 
much more of an emotional impact if it had ended with the strings to ‘Daydream’ fading 
in gorgeous harmony. But it is part of “Gish,” so here ya go.

Tuning: E A D G B E


VERSE
G/Bb G/Bb G/B G/B

Lead...
|-15------------------------------------|
|----15-------------15-12~~-------------|
|-------14b16r14~~-----------14~~-12~~\-|
|---------------------------------------|
|---------------------------------------|
|---------------------------------------|


CHORUS
Asus Cadd9


VERSE 2 - Same

Lead...
|-15------------------------------------|
|----15-------------15-12~~-------------|
|-------14b16r14~~-----------14~~-12~~\-|
|---------------------------------------|
|---------------------------------------|
|---------------------------------------|


CHORUS 2 - Same


VERSE 3 - Same

Lead...
|-15-----------------------------------------------------|
|----15--------------------------------------------------|
|-------14b16r14~~--11b12r11b12r11b12r11~~~~--14~~-12~~\-|
|--------------------------------------------------------|
|--------------------------------------------------------|
|--------------------------------------------------------|


CHORUS 3 - Same

End on Bbm7b5


Chords:
  G/Bb G/B Asus C9  Bbm7b5
|-3----3---0----0---0-----|
|-3----3---0----3---2-----|
|-0----0---2----0---0-----|
|-0----0---2----2---2-----|
|-1----2---0----3---1-----|
|-------------------------|

Enjoy! If you have comments/questions/corrections, PM me or email me at windowpaine_90@yahoo.com
comments
print report bad tab
3 comments total.
0 reply
Arthur_Jayz-G! wrote on December 23 2007, 11:27 am

Bloody Brilliant! 5 Stars! Great Tab Great Album!

0 reply
milanfistonich wrote on December 6 2012, 10:34 pm

my fav album, brilliant

0 reply
ArthurBassFreak wrote on May 23 2013, 08:47 pm

You dindt tab this. This is all copied from spfc.org, Brian (The Tab Guy) Obscured is the brilliant, not you, idiot.

I want to post or [tab]
guest
You may want to rate the tab now too:
select rating
Please do not post tabs as comments. Select "correction" instead!