Oops, an error
Loading. Please wait.

Siamese Dream Bass Tab

3,273 views 3 this week
no commentswrite comment
1 2 3 4 5
please rate
Autoscroll
+/-
esc
set tempo
stop
Contributor
Hey! There's an official Ultimate Guitar app which is ideal
for learning songs when you're away from computer. Get the app
WARNING: You are trying to view
                                    content from Ultimate-Guitar.com
                                    in an unauthorized application,
                                    which is prohibited.

                                    Please use an official Ultimate
                                    Guitar Tabs application for iPhone,
                                    iPad or Android to access legitimate
                                    chords, guitar, bass, and drum tabs
                                    from Ultimate-Guitar.com database.

                                    Type "ultimate guitar tabs" in Apple
                                    App Store's or Android Market's
                                    search to find the application.
 Smashing Pumpkins
 Siamese Dream

 1.Cherub Rock(Unregistered)
 2.Quiet(rcbass)
 3.Today(Unregistered)
 4.Hummer(Unregistered)
 5.Rocket(Unregistered)
 6.Disarm(Unregistered)
 7.Soma(Unregistered)
 8.Geek U.S.A.(Unregistered)
 9.Mayonaise(Unregistered)
 10.Spaceboy(Unregistered)
 11.Silverfuck(Unregistered)
 12.Sweet Sweet(No Bass)
 13.Luna(Unregistered)

===============================================================================

 1.Cherub Rock(Unregistered)

      W                   H           W                   W
G||-------------------|-----------|-------------------|-------------------|
D||-------------------|-----------|-------------------|-------------------|
A||-------------------|-----------|-------------------|-------------------|
E||-------------------|-----------|-------------------|-------------------|


  W                   W                   S S S S S S S S S S S S S S S S
-------------------|-------------------|----------------------------------|
-------------------|-------------------|----------------------------------|
-------------------|-------------------|----7-7---7-7---0-L-7-7---7-7-7---|
-------------------|-------------------|--0-----0-----0---------0-------0-|


  S S S S S S S S S S S S S S S S    S S S S S S S S S S S S S S S S
----------------------------------|----------------------------------|
----------------------------------|----------------------------------|
----7-7---7-7---7-L-7-7---7-7-7---|----7-7---7-7---7-L-7-7---7-7-7---|
--0-----0-----0---------0-------0-|--0-----0-----0---------0-------0-|


  S S S S S S S S S S S S S S S S    S S S S S S S S S S S S S S S S
----------------------------------|----------------------------------|
----------------------------------|----------------------------------|
----7-7---7-7---7-L-7-7---7-7-7---|----7-7---7-7---7-L-7-7---7-7-7---|
--0-----0-----0---------0-------0-|--0-----0-----0---------0-------0-|


  S S S S S S S S S S S S S S S S    S S S S S S S S S S S S S S S S
----------------------------------|----------------------------------|
----------------------------------|----------------------------------|
----7-7---7-7---7-L-7-7---7-7-7---|----7-7---7-7---7-L-7-7---7-7-7---|
--0-----0-----0---------0-------0-|--0-----0-----0---------0-------0-|


  S S S S S S S S S S S S S S S S    S S S S S S S S S S S S S S S S
----------------------------------|----------------------------------|
----------------------------------|----------------------------------|
----7-7---7-7---7-L-7-7---7-7-7---|----7-7---7-7---7-L-7-7---7-7-7---|
--0-----0-----0---------0-------0-|--0-----0-----0---------0-------0-|


  S S S S S S S S S S S S S S S S    E.  S E  S E  S E  S S S S
----------------------------------|-----------------------------|
----------------------------------|-----------------------------|
----7-7---7-7---7-L-7-7---7-7-7---|--5---5-5--0-0--0-0----------|
--0-----0-----0---------0-------0-|---------------------0-0-0-0-|


  S S S S S S S S S S S S S S S S    S S S S S S S S S S S S S S S S
----------------------------------|----------------------------------|
----------------------------------|----------------------------------|
----7-7---7-7---7-L-7-7---7-7-7---|----7-7---7-7---7-L-7-7---7-7-7---|
--0-----0-----0---------0-------0-|--0-----0-----0---------0-------0-|


  S S S S S S S S S S S S S S S S    S S S S S S S S S S S S S S S S
----------------------------------|----------------------------------|
----------------------------------|----------------------------------|
----7-7---7-7---7-L-7-7---7-7-7---|----7-7---7-7---7-L-7-7---7-7-7---|
--0-----0-----0---------0-------0-|--0-----0-----0---------0-------0-|


  S S S S S S S S S S S S S S S S    S S S S S S S S S S S S S S S S
----------------------------------|----------------------------------|
----------------------------------|----------------------------------|
----7-7---7-7---7-L-7-7---7-7-7---|----7-7---7-7---7-L-7-7---7-7-7---|
--0-----0-----0---------0-------0-|--0-----0-----0---------0-------0-|


  E.  S E  S E  S E  S S S S    S S S S S S S S S S S S S S S S
-----------------------------|----------------------------------|
-----------------------------|----------------------------------|
--5---5-5--0-0--0-0----------|----7-7---7-7---7-L-7-7---7-7-7---|
---------------------0-0-0-0-|--0-----0-----0---------0-------0-|


  S S S S S S S S S S S S S S S S    E.  S E  S E  S E  S S S S
----------------------------------|-----------------------------|
----------------------------------|-----------------------------|
----7-7---7-7---7-L-7-7---7-7-7---|--5---5-5--0-0--0-0----------|
--0-----0-----0---------0-------0-|---------------------0-0-0-0-|


  S S S S S S S S S S S S S S S S    S S S S S S S S S S S S S S S S
----------------------------------|----------------------------------|
----------------------------------|----------------------------------|
----7-7---7-7---7-L-7-7---7-7-7---|----7-7---7-7---7-L-7-7---7-7-7---|
--0-----0-----0---------0-------0-|--0-----0-----0---------0-------0-|


  E.  S E  S E  S E  S S S S    E.  S S S S E  S S S S S S S
-----------------------------|-------------------------------|
-----------------------------|-------------------------------|
--5---5-5--0-0--0-0--0-0-0-2-|--3---3-3-3--------------------|
-----------------------------|------------0-3--3-3-3-3-3-3-3-|


  E.  S E  S E  S E  S S S S    E.  S S S S E  S S S S S S S
-----------------------------|-------------------------------|
-----------------------------|-------------------------------|
--5---5-5--0-0--0-0--0-0-0-2-|--3---3-3-3--------------------|
-----------------------------|------------0-3--3-3-3-3-3-3-3-|


  E.  S E  S E  S E  S S S S    E.  S S S S E  S S S S S S S
-----------------------------|-------------------------------|
-----------------------------|-------------------------------|
--5---5-5--0-0--0-0--0-0-0-2-|--3---3-3-3--------------------|
-----------------------------|------------0-3--3-3-3-3-3-3-3-|


  E.  S E  S E  S E  S S S S    E  S S E  S S E  S S S S S S
-----------------------------|-------------------------------|
-----------------------------|-------------------------------|
--5---5-5--0-0--0-0--0-0-0-2-|--3--3-3-3--3-3-3--3-3-3-3-3-3-|
-----------------------------|-------------------------------|


  S S S S S S S S S S S S S S S S    S S S S S S S S S S S S S S S S
----------------------------------|----------------------------------|
----------------------------------|----------------------------------|
----7-7---7-7---7-L-7-7---7-7-7---|----7-7---7-7---7-L-7-7---7-7-7---|
--0-----0-----0---------0-------0-|--0-----0-----0---------0-------0-|


  S S S S S S S S S S S S S S S S    S S S S S S S S S S S S S S S S
----------------------------------|----------------------------------|
----------------------------------|----------------------------------|
----7-7---7-7---7-L-7-7---7-7-7---|----7-7---7-7---7-L-7-7---7-7-7---|
--0-----0-----0---------0-------0-|--0-----0-----0---------0-------0-|


  S S S S S S S S S S S S S S S S    S S S S S S S S S S S S S S S S
----------------------------------|----------------------------------|
----------------------------------|----------------------------------|
----7-7---7-7---7-L-7-7---7-7-7---|----7-7---7-7---7-L-7-7---7-7-7---|
--0-----0-----0---------0-------0-|--0-----0-----0---------0-------0-|


  E.  S E  S E  S E  S S S S    S S S S S S S S S S S S S S S S
-----------------------------|----------------------------------|
-----------------------------|----------------------------------|
--5---5-5--0-0--0-0--0-0-0-2-|----7-7---7-7---7-L-7-7---7-7-7---|
-----------------------------|--0-----0-----0---------0-------0-|


  S S S S S S S S S S S S S S S S    E.  S E  S E  S E  S S S S
----------------------------------|-----------------------------|
----------------------------------|-----------------------------|
----7-7---7-7---7-L-7-7---7-7-7---|--5---5-5--0-0--0-0--0-0-0-2-|
--0-----0-----0---------0-------0-|-----------------------------|


  S S S S S S S S S S S S S S S S    S S S S S S S S S S S S S S S S
----------------------------------|----------------------------------|
----------------------------------|----------------------------------|
----7-7---7-7---7-L-7-7---7-7-7---|----7-7---7-7---7-L-7-7---7-7-7---|
--0-----0-----0---------0-------0-|--0-----0-----0---------0-------0-|


  E.  S E  S E  S E  S S S S    E.  S S S S E  S S S S S S S
-----------------------------|-------------------------------|
-----------------------------|-------------------------------|
--5---5-5--0-0--0-0--0-0-0-2-|--3---3-3-3--------------------|
-----------------------------|------------0-3--3-3-3-3-3-3-3-|


  E.  S E  S E  S E  S S S S    E.  S S S S E  S S S S S S S
-----------------------------|-------------------------------|
-----------------------------|-------------------------------|
--5---5-5--0-0--0-0--0-0-0-2-|--3---3-3-3--------------------|
-----------------------------|------------0-3--3-3-3-3-3-3-3-|


  E.  S E  S E  S E  S S S S    E.  S S S S E  S S S S S S S
-----------------------------|-------------------------------|
-----------------------------|-------------------------------|
--5---5-5--0-0--0-0--0-0-0-2-|--3---3-3-3--------------------|
-----------------------------|------------0-3--3-3-3-3-3-3-3-|


  E.  S E  S E  S E  S S S S    E  S S E  S S E  S S S S S S
-----------------------------|-------------------------------|
-----------------------------|-------------------------------|
--5---5-5--0-0--0-0--0-0-0-2-|--3--3-3-3--3-3-3--3-3-5-5-5-5-|
-----------------------------|-------------------------------|


  E  S S S S S E  S E  E  E     E  S S E  S E  S S S E  E
-----------------------------|-----------------------------|
-----------------------------|-----------------------------|
-----------------------5--5--|--0--0-0-0--2-3--3-3---------|
--0--0-0-0-0-0-0--0-0--------|---------------------0-3--0--|


  E  S S S S S E  S E  E  E     E  S S E  S E  S S S E  E
-----------------------------|-----------------------------|
-----------------------------|-----------------------------|
-----------------------5--5--|--0--0-0-0--2-3--3-3---------|
--0--0-0-0-0-0-0--0-0--------|---------------------0-3--0--|


  E  S S S S S E  S E  E  E     E  S S E  S E  S S S E  E
-----------------------------|-----------------------------|
-----------------------------|-----------------------------|
-----------------------5--5--|--0--0-0-0--2-3--3-3---------|
--0--0-0-0-0-0-0--0-0--------|---------------------0-3--0--|


  E  S S S S S E  S E  E  E     E  S S E  S E  S S S E  E
-----------------------------|-----------------------------|
-----------------------------|-----------------------------|
-----------------------5--5--|--0--0-0-0--2-3--3-3---------|
--0--0-0-0-0-0-0--0-0--------|---------------------0-3--0--|


  S S S S S S S S S S S S S S S S    S S S S S S S S S S S S S S S S
----------------------------------|----------------------------------|
----------------------------------|----------------------------------|
----7-7---7-7---7-L-7-7---7-7-7---|----7-7---7-7---7-L-7-7---7-7-7---|
--0-----0-----0---------0-------0-|--0-----0-----0---------0-------0-|


  S S S S S S S S S S S S S S S S    S S S S S S S S S S S S S S S S
----------------------------------|----------------------------------|
----------------------------------|----------------------------------|
----7-7---7-7---7-L-7-7---7-7-7---|----7-7---7-7---7-L-7-7---7-7-7---|
--0-----0-----0---------0-------0-|--0-----0-----0---------0-------0-|


  E.  S E  S E  S E  S S S S    S S S S S S S S S S S S S S S S
-----------------------------|----------------------------------|
-----------------------------|----------------------------------|
--5---5-5--0-0--0-0----------|----7-7---7-7---7-L-7-7---7-7-7---|
---------------------0-0-0-0-|--0-----0-----0---------0-------0-|


  E.  S E  S E  S E  S S S S    S S S S S S S S S S S S S S S S
-----------------------------|----------------------------------|
-----------------------------|----------------------------------|
--5---5-5--0-0--0-0----------|----7-7---7-7---7-L-7-7---7-7-7---|
---------------------0-0-0-0-|--0-----0-----0---------0-------0-|


  E.  S E  S E  S E  S S S S    S S S S S S S S S S S S S S S S
-----------------------------|----------------------------------|
-----------------------------|----------------------------------|
--5---5-5--0-0--0-0----------|----7-7---7-7---7-L-7-7---7-7-7---|
---------------------0-0-0-0-|--0-----0-----0---------0-------0-|


  E.  S E  S E  S E  S S S S    E.  S S S S E  S S S S S S S
-----------------------------|-------------------------------|
-----------------------------|-------------------------------|
--5---5-5--0-0--0-0--0-0-0-2-|--3---3-3-3--------------------|
-----------------------------|------------0-3--3-3-3-3-3-3-3-|


  E.  S E  S E  S E  S S S S    E.  S S S S E  S S S S S S S
-----------------------------|-------------------------------|
-----------------------------|-------------------------------|
--5---5-5--0-0--0-0--0-0-0-2-|--3---3-3-3--------------------|
-----------------------------|------------0-3--3-3-3-3-3-3-3-|


  E.  S E  S E  S E  S S S S    E.  S S S S E  S S S S S S S
-----------------------------|-------------------------------|
-----------------------------|-------------------------------|
--5---5-5--0-0--0-0--0-0-0-2-|--3---3-3-3--------------------|
-----------------------------|------------0-3--3-3-3-3-3-3-3-|


  E.  S E  S E  S E  S S S S    E.  S S S S E  S S S S S S S
-----------------------------|-------------------------------|
-----------------------------|-------------------------------|
--5---5-5--0-0--0-0--0-0-0-2-|--3---3-3-3--------------------|
-----------------------------|------------0-3--3-3-3-3-3-3-3-|


  E.  S E  S E  S E  S S S S    E.  S S S S E  S S S S S S S
-----------------------------|-------------------------------|
-----------------------------|-------------------------------|
--5---5-5--0-0--0-0--0-0-0-2-|--3---3-3-3--------------------|
-----------------------------|------------0-3--3-3-3-3-3-3-3-|


  E.  S E  S E  S E  S S S S    E.  S S S S E  S S S S S S S
-----------------------------|-------------------------------|
-----------------------------|-------------------------------|
--5---5-5--0-0--0-0--0-0-0-2-|--3---3-3-3--------------------|
-----------------------------|------------0-3--3-3-3-3-3-3-3-|


  E.  S E  S E  S E  S S S S    E.  S S S S E  S S S S S S S
-----------------------------|-------------------------------|
-----------------------------|-------------------------------|
--5---5-5--0-0--0-0--0-0-0-2-|--3---3-3-3--------------------|
-----------------------------|------------0-3--3-3-3-3-3-3-3-|


  E.  S E  S E  S E  S S S S    E  S S E  S S E  S S E  E
-----------------------------|-----------------------------|
-----------------------------|-----------------------------|
--5---5-5--0-0--0-0--0-0-0-2-|--3--3-3-3--3-3-3--3-3-3--3--|
-----------------------------|-----------------------------|


  E  S S E  S S E  S S E  E     E  S S S S S E  S E  E  E
-----------------------------|-----------------------------|
-----------------------------|-----------------------------|
--3--3-3-3--3-3-3--3-3-------|-----------------------5--5--|
-----------------------3--3--|--0--0-0-0-0-0-0--0-0--------|


  E  S S E  S E  S S S E  E     E  S S S S S E  S E  E  E
-----------------------------|-----------------------------|
-----------------------------|-----------------------------|
--3--3-3-3--3-3--3-3---------|-----------------------5--5--|
---------------------0-3--3--|--0--0-0-0-0-0-0--0-0--------|


  E  S S E  S E  S S S E  E     E  S S S S S E  S E  E  E
-----------------------------|-----------------------------|
-----------------------------|-----------------------------|
--3--3-3-3--3-3--3-3---------|-----------------------5--5--|
---------------------0-3--3--|--0--0-0-0-0-0-0--0-0--------|


  E  S S E  S E  S S S E  E     E  S S S S S E  S E  E  E
-----------------------------|-----------------------------|
-----------------------------|-----------------------------|
--3--3-3-3--3-3--3-3---------|-----------------------5--5--|
---------------------0-3--3--|--0--0-0-0-0-0-0--0-0--------|


  E  S S E  S E  S S S E  E     S S S S S S S S S S S S S S S S
-----------------------------|----------------------------------|
-----------------------------|----------------------------------|
--3--3-3-3--3-3--3-3---------|----7-7---7-7---7-L-7-7---7-7-7---|
---------------------0-3--3--|--0-----0-----0---------0-------0-|


  S S S S S S S S S S S S S S S S    S S S S S S S S S S S S S S S S
----------------------------------|----------------------------------|
----------------------------------|----------------------------------|
----7-7---7-7---7-L-7-7---7-7-7---|----7-7---7-7---7-L-7-7---7-7-7---|
--0-----0-----0---------0-------0-|--0-----0-----0---------0-------0-|


  S S S S S S S S S S S S S S S S    S S S S S S S S S S S S S S S S
----------------------------------|----------------------------------|
----------------------------------|----------------------------------|
----7-7---7-7---7-L-7-7---7-7-7---|----7-7---7-7---7-L-7-7---7-7-7---|
--0-----0-----0---------0-------0-|--0-----0-----0---------0-------0-|


  S S S S S S S S S S S S S S S S    S S S S S S S S S S S S S S S S
----------------------------------|----------------------------------|
----------------------------------|----------------------------------|
----7-7---7-7---7-L-7-7---7-7-7---|----7-7---7-7---7-L-7-7---7-7-7---|
--0-----0-----0---------0-------0-|--0-----0-----0---------0-------0-|


  S S S S S S S S S S S S S S S S    W
----------------------------------|-------------------|-------------------||
----------------------------------|-------------------|-------------------||
----7-7---7-7---7-L-7-7---5-L-L-L-|-------------------|-------------------||
--0-----0-----0---------0---------|--0----------------|-------------------||

===============================================================================

 2.Quiet(rcbass)

 Intro/Main Riff
|-------------------------------------------------------------|
|-------------------------------------------------------------|
|-------------------------------------------------------------|
|-0h2222h3333h55555h77777-------------------------------------|


Chorus
|-------------------------------------------------------------|
|-------------------------------------------------------------|
|--44---77----------------------------------------------------|
|---------000------9/777777/555555----------------------------|
           ^^
         listen closely for the second two E's

Bridge
|-------------------------------------------------------------|
|-------------------------------------------------------------|
|-22222222--3333--4444--5555--6666--7777-88--99--10-10-11-11--|
|-------------------------------------------------------------|

Alternative Verse
|---------------------------------------------------------------|
|---------------------------------------------------------------|
|---------------------------------------------------------------|
|-0h2222h3333h5555----------------------------------------------|

===============================================================================

 3.Today(Unregistered)

Tuning: Tune 1/2 step down

Eb Ab Db Gb

Pattern 1:

  e  e  e  e  e  e  e  e    e  s s e  s s e  s s e  s s
|-------------------------|------------------------------|
|-------------------------|------------------------------|
|-------------2--2--2--2--|-0--0-0-0--0-0-0--0-0-0--0-0--|
|-0--0--0--0--------------|------------------------------|


Pattern 2:

  e  e  e  e  e  e  e  e    e  e  e  e  e  e  e  e
|-------------------------|-------------------------|
|-------------------------|-------------------------|
|-------------2--2--2--2--|/4--4--4--4-\0--0--0--0--|
|-0--0--0--0--------------|-------------------------|

Pattern 3:

  e  e  e  e  e  e  e  e    e  e  e  e  e  e  e  s s
|-------------------------|---------------------------|
|-------------------------|---------------------------|
|-------------2--2--2--2--|-0--0--0--0--0--0--0--0-2--|
|-0--0--0--0--------------|---------------------------|

Pattern 4:

  e  e  e  e  e  e  e  e    e  s s e  s s e  s s s s s
|-------------------------|-----------------------------|
|-------------------------|-----------------------------|
|-------------2--2--2--2--|-0--0-0-0--0-0-0--0-0-0-0-2--|
|-0--0--0--0--------------|-----------------------------|

Pattern 5:

  e  e  e  e  e  e  e  s s   e  e  e  e  e  e  e  e
|--------------------------|-------------------------|
|--------------------------|-------------------------|
|-------------2--2--2--2-2-|-4--4--4--4--4--4--4--4--|
|-0--0--0--0---------------|-------------------------|
                             >  >  >  >  >  >  >  >

Pattern 6:

  e  e  e  s s e  e  e  s s    e  s s e  s s e  s s s s s s
|----------------------------|-------------------------------|
|----------------------------|-------------------------------|
|--------------0--0--0--0-x--|-4--4-4-4--4-4-4--4-4-4-4------|
|-2--2--2--2-x---------------|--------------------------0-1--|

Pattern 7:

  e e e s s e e e s s   e e e s s  s  s  s  s  s  s  s  s
|---------------------|------------------------------------|
|---------------------|------------------------------------|
|-----------0-0-0-----|------------------------------------|
|-2-2-2-2-x-------2-2-|-4-4-4-4/11-11/12-11/12-11/12-11/12-|

Pattern 8:

  e   e   e   e  e  e  e  s s   e  s s e  s s e  s s s s s
|-----------------------------|------------------------------|
|-----------------------------|------------------------------|
|-----------------------------|------------------------------|
|-12--12--12--12\7--7--7--7-0-|-5--5-5-5--5-5-5--5-5-5-5/12--|


Pattern 9:

  e   e   e   e   e  e  e  s s    e  e  e  e  e  e  s s e
|-------------------------------|---------------------------|
|-------------------------------|---------------------------|
|-------------------------------|---------------------------|
|-12--12--12--12-\7--7--7--7-7--|-9--9--9--9--9--9--9-9-9\--|

Pattern 10:

  e  e  e  s s e  e  e  s s    e  e  e  s  s e  e  e   s s
|----------------------------|------------------------------|
|----------------------------|------------------------------|
|--------------0--0--0--0-2--|-------------2--2--2--2-------|
|-2--2--2--2-x---------------|-0--0--0--0--------------0-1--|

Pattern 11:

  e  e  e  s s e  e  e  s s    e  e  e  s  s  e  e  e  s  s
|----------------------------|-------------------------------|
|----------------------------|-------2-----------------------|
|--------------0--0--0--0-2--|----------------2--2--2--------|
|-2--2--2--2-x---------------|-0--0-----0--0-----------0--1--|

Pattern 12:

  e e e s s e e e s s    e e e s s  s  s  s  s  s  s  s  s
|----------------------|-------------------------------------|
|----------------------|-------------------------------------|
|-----------0-0-0------|-------------------------------------|
|-2-2-2-2-x-------2-3--|-4-4-4-4/11-11/12-11/12-11/12-11/12--|

Pattern 13:

  e  e  e  e  e  e  e  e    e  e  e  s s e  e  e  e
|-------------------------|--------------------------|
|-------------------------|--------------------------|
|-------------2--2--2--2--|------------2-0--0--0--0--|
|-0--0--0--0--------------|-0--0--0--0---------------|

Pattern 14:

  e  e  e  e  e  e  e  e    e  s s e  e  e  e  s s  e
|-------------------------|----------------------------|
|-------------------------|----------------------------|
|-------------2--2--2--2--|-4--4-4-4--4-\0--0--0-0--0--|
|-0--0--0--0--------------|----------------------------|


Pattern 15:

  e  e  e  e  e  e  e  e    e  e  e  e  e  e  e  e
|-------------------------|-------------------------|
|-------------------------|-------------------------|
|-------------2--2--2--2--|-4--4--4--4--4--4--4--4--|
|-0--0--0--0--------------|-------------------------|

Pattern 16:

  e  e  e  e  e  e  e  s s
|---------------------------|
|---------------------------|
|-4--4--4--4--4--4--4-------|
|----------------------0-1--|


Pattern 17:

  e  e  e  s s  e  e  e  s s    e  e  e  e  e  e  e s s
|-----------------------------|--------------------------|
|-----------------------------|--------------------------|
|---------------0--0--0--0-x--|-4--4--4--4--4--4--4------|
|-2--2--2--2-x----------------|---------------------0-1--|


Pattern 18:

  e  e  e  s s  e  e  e  s s
|-----------------------------|
|-----------------------------|
|---------------0--0--0--0-2--|
|-2--2--2--2-x----------------|


Pattern 19:

  e  e  e  e  e  e  e  e    e  s s e  s s e  s s e  s s
|-------------------------|------------------------------|
|-------------------------|------------------------------|
|-------------2--2--2--2--|-4--4-4-4--4-4-0--0-0-0--0-2--|
|-0--0--0--0--------------|------------------------------|

Pattern 20:

  e  e  e  e  e  e  e  e    e  s s e  s s s s s s s s s
|-------------------------|------------------------------|
|-------------------------|------------------------------|
|-------------2--2--2--2--|-4--4-4-4--4-4-0-0-0-0-0-0-2--|
|-0--0--0--0--------------|------------------------------|


Pattern 21:

  e  e  e  e  e  e  e  e    e  e  e  e  e  s s s s s
|-------------------------|---------------------------|
|-------------------------|---------------------------|
|-------------2--2--2--2--|-4--4--4--4--0--0-0-0-0-2--|
|-0--0--0--0--------------|---------------------------|


Pattern 22:

  e  e  e  e  e  e  e  e    e  e  e  e  e  e  e  e
|-------------------------|-------------------------|
|-------------------------|-------------------------|
|-------------2--2--2--2--|-4--4--4--4--0--0--0--2--|
|-0--0--0--0--------------|-------------------------|

Pattern 23:

  h.
|-------------------------|
|-------------------------|
|-------------------------|
|-0-----------------------|


playing order:

Intro: (no bass) 4 bars
Pattern 1 (x2)
Pattern 2
Pattern 3
Rest: 4 bars
Pattern 4
Pattern 5
Pattern 6
Pattern 6
Pattern 6
Pattern 7
Pattern 8
Rest: 4 bars
Pattern 8
Pattern 9
Pattern 10
Pattern 11
Pattern 10
Pattern 12
Pattern 13
Pattern 13
Pattern 14
Pattern 15
Pattern 16
Pattern 17
Rest: 4 bars
Pattern 17
Pattern 18
Pattern 19
Pattern 20
Pattern 21
Pattern 22
Pattern 23

===============================================================================

 4.Hummer(Unregistered)

Riff1-1
G|-------------------------|
d|-------------------------| then sometimes play
A|0-2-3--5-5--5-5--5-5-5--5| Riff1-2.
D|-------------------------|

Riff1-2
G|-------------------------|
d|-------------------------|
A|0-2-3--5-5--5-5--5-------|
D|-------------------5-5--5|

Then when it gets loud and when it's quiet:

Riff2
G|-----2h4----------------------------|
d|----------------5-------------------|  Last time go to
A|5--5-----5--5-7---7-7/10/3--3h5-3h5-|  the G (5 on D)
D|------------------------------------|

Then when it gets loud again:

Riff3
G|-------------------------------------------------------|
d|-------------------------------------------------------|
A|--------------------------------5--5h5-----------------|
D|2--2h2-2--2-2-2-5--5h5-5--5-5-5--------7--7h-7-5-5-5-5-|

G|--------------------------------|
d|--------------------------------|
A|--------------------------------|
D|2--2h2-2--2-2-2-7--7h7-7--7-7-7-|


When it gets quiet it play Riff2, and when it
gets loud continue playing 2.

Then smack an E (2 on D), and play:

Riff4
G|---------------------------------------|
d|---------------------------------------|
A|------------------------------3--3-3-3-|
D|0--0-2--2-5--5-5-5--0--0-2--2----------|

Then at the solo play Riff3. Then 1/2 way throught the solo:

Riff5
G|----------------------------------------|
d|----------------------------------------|
A|5-5-5-3--3-3-3-3h2-2-2-2--2-2-2---------|
D|--------------------------------7-7-7-7-|

Last time: hold A, G, F#.

Play Riff2 When Billy's singing "Life's a bummer"

When it gets quiet play:

Riff6
G|-----------------------------------------------------|
d|-----------------------------------------------------|
A|----------------4--4-4-4-4--4-4-4h-------------------|
D|7--7-7-7-7--7-7-------------------5--5-5-5-5-4-4-4-4-|

After playing 6 several times play E then a G, then resume 6.

At the end play:

Riff7
G|-------------------:----------------------------------------|
d|-------------5-5---:----------------------------------------|
A|-------------------:-------------5-5--------------5-5-------|
D|7--7-7-7-7-7------5:2--2-2-2-2-2-----2--2-2-2-2-2-----5-----|

===============================================================================

 5.Rocket(Unregistered)

 Verse
|-0-0-0--0-0--0---------0-0-0--0-0--0------------------|
|-------------------0h1-------------------oh1----------|
|---------------0h1-------------------0h1--------------|
|------------------------------------------------------|


Prechorus
|------------------------------------------------------|
|-3-3-3-3-3-3-3-3-3-3-3-3-3-3-3-3----------------------|
|------------------------------------------------------|
|------------------------------------------------------|
then go back and forth between the two above bars until the chorus:

Chorus

|-0-0-0-00-----------------0---0-----------------------|
|----------0-0-0-00--3-3-3---3-------------------------|
|--------------------------------3-3-3-3---------------|
|------------------------------------------------------|

===============================================================================

 6.Disarm(Unregistered)

 (x4)
|-------------------------------------------------------------------|
|-------------------------------------------------------------------|
|-----------------3-3-3-3-3-3-3-3-----------------------------------|
|-0-0-0-0-0-0-0-0------------------3-3-3-3-3-3-3-3-3-3-3-3-2-2-2-2--|

Fig2 (x1)
|------------------------------------------------------------|
|------------------------------------------------------------|
|-----------------3-3-3-3-3-3-3-3----------------------------|
|-0-0-0-0-0-0-0-0------------------3-3-3-3-3-3-3-3-3--3-2----|

(x1)
|---------------------------------------------------------------------------------------|
|---------------------------------------------------------------------------------------|
|-----------------3-3-3-3-3-3-3-3-------------------5-5-5-5-5-5-5-5--3-3-3-3-3-3-3-3-3--|
|-0-0-0-0-0-0-0-0------------------3-3-3-3-3-3-3-3--------------------------------------|


(x4)
|-----------------------------------------------------------------------------------------------|
|-----------------------------------------------------------------------------------------------|
|-3-3-3-3-3-3-3-3-3-3-3-3-3-3-3-3---------------5-5-5-5-5-5-5-5--3-3-3-3-3-3-3-3-3-3-3-3-3-3-3--|
|---------------------------------0-0-0-0-0-0-0-------------------------------------------------|

(x1)
|-------------------------------------------------------------------------------------------------|
|-------------------------------------------------------------------------------------------------|
|-----------------5-5-5-5-5-5-5-5--3-3-3-3-3-3-3-3-3-3-3-3-3-3-3-3-3-3-3-3-3-3-3-3-3-3-3-3-3-3-3--|
|-0-0-0-0-0-0-0-0---------------------------------------------------------------------------------|

(x1)
|-------------------------------------------------------------------|
|-------------------------------------------------------------------|
|-----------------3-3-3-3-3-3-3-3-----------------------------------|
|-0-0-0-0-0-0-0-0------------------3-3-3-3-3-3-3-3-3-3-3-3-2-2-2-2--|

(x1)
|------------------------------------------------------------|
|------------------------------------------------------------|
|-----------------3-3-3-3-3-3-3-3----------------------------|
|-0-0-0-0-0-0-0-0------------------3-3-3-3-3-3-3-3-3--3-2----|

(x1)
|---------------------------------------------------------------------------------------|
|---------------------------------------------------------------------------------------|
|-----------------3-3-3-3-3-3-3-3-------------------5-5-5-5-5-5-5-5--3-3-3-3-3-3-3-3-3--|
|-0-0-0-0-0-0-0-0------------------3-3-3-3-3-3-3-3--------------------------------------|

(x4)
|----------------------------------------------------------------|
|----------------------------------------------------------------|
|-3-3-3-3-3-3-3-3-3-3-3-3-3-3-3--7-7-7-7-7-7-7--5-5-5-5-5-5-5-5--|
|----------------------------------------------------------------|

(x4)
|----------------------------------------------------------------|
|----------------------------------------------------------------|
|-3-3-3-3-3-3-3-3-3-3-3-3-3-3-3--5-5-5-5-5-5-5--7-7-7-7-7-7-7-7--|
|----------------------------------------------------------------|

(x1)
|-------------------------------------------------------------------------------------------------|
|-------------------------------------------------------------------------------------------------|
|-5-5-5-5-5-5-5--7-7-7-7-7-7-7--5-5-5-5-5-5-5--7-7-7-7-7-7-7--5-5-5-5-5-5-5--7-7-7-7-7-7-7--3-3--3|
|-------------------------------------------------------------------------------------------------|

===============================================================================

 7.Soma(Unregistered)

 Riff 1

G ------------------|
D ------------------|
A ---2--------------|
E ------0---0---3---|

Riff 2

G -----------------------------------------------------------------------------------------|
D -----------------------------------------------------------------------------------------|
A ---2---2/4--------------------------------------2---2/4----------------------------------|
E -------------0---0---3------3------2------0-------------0---0---3------3------2------3---|

in our ruse of fools...
G -----------------------|
D -----------------------|
A -----------------------|
E ---3---3---2---3---2---|

Riff 4

G --------------------------------------------------------------------|
D --------------------------------------------------------------------|
A ---2---2/4-------2---2/4--------------------------------------------|
E----------------2--------------3------5---5---0---3---3---5------2---|

Riff 5

G -----------------------------------------|
D -----------------------------------------|
A -----------3---3-------------------------|
E ---5---5---------3---3---1---1---1---1---|

Riff 6

G -----------------------------------------------------|
D -----------------------------------------------------|
A ---2---2------5---5------5---5---5---3---3---3---3---|
E -----------------------------------------------------|

Riff 7

G ----------------|
D ----------------|
A ------------2---|
E ---3---2--------|


Riff 1  x8
Riff 2  x4
Riff 1  x4
Riff 2  x4
Riff 4  x1
Riff 5  x4
Riff 2  x10
Riff 5  x2
Riff 6  x2
Riff 2  x4
Riff 1  x4
Riff 7  x1

===============================================================================

 8.Geek U.S.A.(Unregistered)


                     intro
G|-------------------------------------------------|
D|-------------------------------------------------|
A|-------------------------------------------------|
E|-3-/-7--0-0-0-0-0-0-0-0---3-/-7--0-0-0-0-0-0-0-0-|

                     riff 1
G|-----------------------------------------------------|
D|-----------------------------------------------------|
A|------------------------10------------------------5--|
E|--0-0--0-0-0--0--0-0-0------0-0--0-0-0--0--0-0-0-----|

                     riff 2
G|-----------------------------------|
D|-----------------------------------|
A|-----------5-----------------------|
E|--0--0--0-----0--0--0--5-/7--3-----|( this should be one, whole continuious slide)

                     riff 3
G|------------------------------|
D|------------------------------|
A|-------------5----------------|
E|--0--0--0------0--5--4--0--3--|

                     riff 4
G|---------------------------|
D|---------------------------|
A|-----------7------------5--|
E|--0--0--0-----0-0-0--0-----|

                     riff 5
G|----------------------------|
D|----------------------------|
A|----------------------------|
E|--3--3-3-3--3--5--5-5-5--5--|

                     riff 6
G|----------------------------|
D|----------------------------|
A|--7--5----------7--7-7-7-7--|
E|--------7--6--5-------------|

                     riff 7
G|--------------------------------------|
D|--------------------------------------|
A|--------------------------------------|
E|--0-0-0-0--0-0-0-0--0-0-0-0--0-0-0-0--|

                     riff 8
G|-------------------------------------------|
D|-------------------------------------------|
A|--------------------------7---7---7---7----|
E|--5--5-5-5-5--7--7-7-7-7----0---0---0---0--|

                     riff 9
G|--------------------------------------------------|
D|--------------------------------------------------|
A|--------------------------------------------------|
E|--5--5-5-5-5--7--7-7-7-7--10--10--10--10--10--10--|

                     interlude (riff 10)
G|------------------------------|
D|------------------------------|
A|------------------3--0--------|
E|---0-------3-/-5--------------|
     (let ring)

                     riff 11
G|-----------------------------------|
D|-----------------------------------|
A|-----------------------------------|
E|--0--0--0--0--0--0--2--2--2--5--5--|

                 guitar solo (riff 12)
G|------------------------|
D|------------------------|
A|--------------------5---|
E|--0--0--3--0--0--5------|

                  riff 13
G|-----------------------|
D|-----------------------|
A|-----------------------|
E|--7--6--5--4--3--2--0--|

                  riff 14
G|----------------------------------------------|
D|----------------------------------------------|
A|-------------------------------------5-5-5-5--|
E|--0--0--0--0--3--3--3--3--5--5--5--5----------|

                  riff 15
G|------------------------------------------------------|
D|------------------------------------------------------|
A|---------------------------5-5-5-5--5-5-5-5--5-5-5-5--|
E|--0-0-0-0-3-3-3-3-5-5-5-5-----------------------------|

                  riff 16
G|-----------------------------------------------|
D|-----------------------------------------------|
A|--------------------------5--5--0--4--4--0--0--|
E|--3--0--0--0--7--0--0--------------------------|

play in this order:
intro    X1
riff 1   X4
riff 2   X3
riff 3   X1
riff 2   X3
riff 3   X1
riff 4   X1
riff 5   X1
riff 6   X1
riff 5   X1
riff 4   X1
riff 5   X2
riff 7   X1
riff 5   X1
intro    x1
riff 1   X2
riff 2   X3
riff 3   X1
riff 2   X3
riff 3   X1
riff 8   X3
riff 9   X1
riff 4   X1
riff 5   X1
riff 6   X1
riff 5   X1
riff 4   X1
riff 5   X2
riff 7   X1
riff 5   X1
riff 10  X4
riff 11  X4
riff 12  X8
riff 13  X1
riff 14  X7
riff 15  X1
riff 14  X3
riff 15  X1
riff 16  X  play this until the song ends

===============================================================================

 9.Mayonaise(Unregistered)

1/2 step down tuning
Verses:

G--------------------------------------------------------------------|
D--------------------------------------------------------------------|
A--2--2--2-2-2-2^----------------------------------------------------|
E------------------4--4--4-4-4-4^----0--0-0----0--0-0----------------|

"So try ease the pain"                 x2

G--------------------------------------|
D--------------------------------------|
A---4--4--4-4-4-4-4--------------------|
E---------------------5---5-5--0--0-0-0|

"No one knows..."

G----------------------------------------------------------------------|
D----------------------------------------------------------------------|
A----------------------------------------------------------------------|
E--2--2---2-2---0--0--0--0--0-0-0-0---2--2--2-4----5--5-5-5-5-5-5-5-5--|

back to verses!!!!

Solo part:
G--------------------------------------------------------------------|
D--------------------------------------------------------------------|
A--2--2--2-2-2-2^---------------------2--2--2-2-2-2-2----------------|
E-------------------4--4--4-4-4-4-4----------------------------------|

G--------------------------------------------------------------------|
D--------------------------------------------------------------------|
A--4--4--4-4-4-4-4---7--7--7-7-7-7-7-7-------------------------------|
E----------------------------------------5--5-5-5--4--4-4-4----------|

G-------------------|
D-------------------|
A-------------------|
E---2--2--2-2-2-2-2-|

Rest a while...

When getting back:

G--------------------------------------------------------------------|
D--------------------------------------------------------------------|
A--------------------------------------------------------------------|
E--0--0--0--0--2--2--2--2--4--4--4--4--5--5--5--5--------------------|

Go to verses again until the song ends... There is a variation onthe verses riff:
"when I can, i will"
G--------------------------------------------------------------------|
D--------------------------------------------------------------------|
A-2-2--2-2-2-2-2^----------------------------------------------------|
E----------------4-4--4-4-4-4-4^----0-0--0---5--5--5-5-5-5-5---------|

===============================================================================

 10.Spaceboy(Unregistered)

 Riff 1
G|-----------------------------------------------------------|
D|-----------------------------------------------------------|
A|-----------------------------------------------------------|
E|3--3--3-3-3--3-3-3--5--5--5-5-5--5-5-5-0--0--0-0-0--0-0-0--|

Riff 1 continued
G|------------------------------------|
D|------------------------------------|
A|3--3--3-3-3--3-3-3---------5-5-5----|
E|-------------------3--3--3-------0--|

After You finish Riff 1 the bass is out
Play Riff 2 when billy sings "Please i wanna go home.."

Riff 2
G|-------------------------|
D|-------------------------|
A|3-3-3-----2---3-3-3---2--|
E|------3-------------3----|

This is the best part of the song in my opinion. Its the Instrumental Part

Riff 3
G|----------------------------------------------------------------------|
D|----------------------------------------------------------------------|
A|----------------------------------------------------------------------|
E|1--1-1--0--0-0---1--1-1--3--3-3---1--1-1--0--0-0---1--1-1--3--3-3--3--|

And just read straight through this part. This Riff would be the chorus
line.

Riff 4
G|-----------------------------------------------|
D|------2--5--------------------------------5-7--|
A|3--5--------------------------3-5-7-9----------|
E|------------3--3--3-3---5--7-------------------|

Riff 4 contiuned.
G|------------------------------------------------|
D|------------------------------------------------|
A|3--2-----2-----------5--5--5--------------------|
E|------5-----3--3--3-----------0--0-0--1-1--1-1--|

Riff 4...still going
G|---------------------|
D|---------------------|
A|3--2-----2--------5--|
E|------5-----3--3-----|

Riff 4............this would be the last Riff(of Riff 4)
G|---------------------------------------|
D|---------------------------------------|
A|---------------------------------------|
E|1--1--1-1--1--1--1-1--3--3--3-3--3--2--|

===============================================================================

 11.Silverfuck(Unregistered)

 Riff 1
G|--------------------|
d|--------------------|
A|5-----5-------------|
D|--0-0--0h0h0h0h0h0--|

Play this, and when the guitars go out, continue with it.

Then the chorus:

Riff 2
G|---------------|
d|---------------|
A|5-------5------|
D|----5-------5--|


Riff 3
G|---------------|
d|---------------|
A|5-------5------|
D|----0-------0--|

===============================================================================

 12.Sweet Sweet(No Bass)


===============================================================================

 13.Luna(Unregistered)

      (let ring!)        x3
A|*--5--7--5--7--5--7--0--*|--0-0-0-0--|------------|------------|--5--5-5-5--|
E|*-----------------------*|-----------|--3--3-3-3--|--2--2-2-2--|------------|


A|--0--0-0-0--|------------|-------------------|--2--2-2-2--|------------|
E|------------|--3--3-3-3--|--2-2-2-2-2-2-2-2--|------------|--3--3-3-3--|


A|--0-0-0-0-0-0-0-0--|--2--2-2-2--|------------|----0----|--rest--|
E|-------------------|------------|--3--3-3-3--|---------|--------|

                       x3                                          x3
A|*--5--5-5--7-7-7-7-7--*|--0-0-0-0-0-0-0-0--|*--5--5-5--7-7-7-7-7--*|
E|*---------------------*|-------------------|*---------------------*|
--

A|--0--0-0-0--|------------|------------|--5--5-5-5--|--0--0-0-0--|-----------|
E|------------|--3--3-3-3--|--2--2-2-2--|------------|------------|--3--3-3-3-|


A|------------|--2--2-2-2--|------------|--0--0-0-0--0--0-0-0--|--2--2-2-2--|
E|--2--2-2-2--|------------|--3--3-3-3--|----------------------|------------|

                                                       play 3 times
A|------------|----5----|--0-0---0-0---0-0---0-0--|*--5--5-5--7-7-7-7-7--|
E|--3--3-3-3--|---------|-------------------------|*---------------------|

                        1st, 2nd time     3rd time (fade out)
A|---o/o---|---o/o---|--0--0-0-0-0--*|--0--0-0-0--0--0-0-0--0--0-0-0--|
E|---------|---------|--------------*|--------------------------------|

===============================================================================
comments
We did not receive enough feedback on this tab! Please rate:
print report bad tab
1 2 3 4 5
I want to post or [tab]
guest
You may want to rate the tab now too:
select rating
Please do not post tabs as comments. Select "correction" instead!