Oops, an error
Loading. Please wait.

Make This Go On Forever Tab

ver1
ver1

Whole song

Interactive

More versions @911Tabs.com
6,123 views 3 this week
no commentswrite comment
1 2 3 4 5
accurate
x 5
Autoscroll
+/-
esc
set tempo
stop
Difficulty
novice
Hey! There's an official Ultimate Guitar app which is ideal
for learning songs when you're away from computer. Get the app
WARNING: You are trying to view
                                    content from Ultimate-Guitar.com
                                    in an unauthorized application,
                                    which is prohibited.

                                    Please use an official Ultimate
                                    Guitar Tabs application for iPhone,
                                    iPad or Android to access legitimate
                                    chords, guitar, bass, and drum tabs
                                    from Ultimate-Guitar.com database.

                                    Type "ultimate guitar tabs" in Apple
                                    App Store's or Android Market's
                                    search to find the application.
Snow patrol - make this go on forever

well this is pretty simple but effective i think.
i chose mostly power chords because it sounds much more like the piano in the normal version,
but hey, mess around its all good.

2 parts: main guitar (and optional distortion guitar) and bass.


Verse 1 - C# E B A


 C#

  1      2      3      4

-------------------------------|
-------------------------------|
--10-----10-----10-----10------|
--11-----11-----11-----11------|
--11-----11-----11-----11------|
-----9--9---9--9---9--9---9--9-|

Please don't let this turn into some-

 E

  1      2      3      4

------------------------------|
------------------------------|
--9------9------9------9------|
--9------9------9------9------|
--7--7--77--7--77--7--77-7--7-|
-----0--0---0--0---0--0--0--0-|

-thing it's not

 B

----------------------------|
----------------------------|
---8-----8-----8-----8------|
---9-----9-----9-----9------|
---9-----9-----9-----9------|
-----7--7--7--7--7--7--7--7-|

I can only give you every-

 A

----------------------------|
----------------------------|
---6-----6-----6-----6------|
---7-----7-----7-----7------|
---7-----7-----7-----7------|
-----5--5--5--5--5--5--5--5-|

-thing I've got


(tremolo pick the root note to get the bass)
this goes in eights with the bar --

     1       2       3       4      1       2       3     4
E-9999999999999999999999999999999000000000000000000000000000000->

->7777777777777777777777777777777555555555555555555555555555555

C#                         E

I can't be as sorry as you think I should
B                                  A                    (cont same chords)

But I still love you more than anyone else could

All that I keep thinking throughout this whole flight
Is it could take my whole damn life to make this right
This splintered mast I'm holding on won't save me long
Because I know fine well that what I did was wrong

   F* x
      x
      11
      11
      9
      0

Chorus (build up pace to a steady strum) C# B A F*

   C#                  B              A        F*
The last girl in the last reason to make this last for as long as I could

First kiss and the first time that I felt connected to anything

The weight of water, the way you taught me to look past everything I had

ever learned

The final word in the final sentence you ever uttered to me was love

Verse 2 (same as previous)

We have got through so much worse than this before
What's so different this time that you can't ignore?
You say it is much more than just my last mistake
And we should spend some time apart for both our sakes

chorus 2 (heavy distortion, emphasise the roots)

outro

B A# C#


-----------------------------------------------|
-----------------------------------------------|
-----------------------------------------------|
---9-----9-----9-----9-----8-----8-----8-----8-|
---9-----9-----9-----9-----8-----8-----8-----8-|
-----7--7--7--7--7--7--7--7--6--6--6--6--6--6--|


--------------------------------------------------------------------------------------|
--------------------------------------------------------------------------------------|
--8------8------8------8------8------8------8------8----------------------------------|
--11-----11-----11-----11-----11-----11-----11-----11---------------------------------|
--11-----11-----11-----11-----11-----11-----11-----11---------------------------------|
-----9--9---9--9---9--9---9--9---9--9---9--9---9--9---4-5-7--7  repeat once, end on 7-|

thanky

Jack Edmonds

live forever :)
comments
print report bad tab
I want to post or [tab]
guest
You may want to rate the tab now too:
select rating
Please do not post tabs as comments. Select "correction" instead!