Oops, an error
Loading. Please wait.

Forged By Fury Tab

ver1
ver1

Whole song

More versions @911Tabs.com
151 views 1 this week
no commentswrite comment
1 2 3 4 5
please rate
Autoscroll
+/-
esc
set tempo
stop
Contributor
Difficulty
Tuning
advanced
C G C F A D
WARNING: You are trying to view
                                    content from Ultimate-Guitar.com
                                    in an unauthorized application,
                                    which is prohibited.

                                    Please use an official Ultimate
                                    Guitar Tabs application for iPhone,
                                    iPad or Android to access legitimate
                                    chords, guitar, bass, and drum tabs
                                    from Ultimate-Guitar.com database.

                                    Type "ultimate guitar tabs" in Apple
                                    App Store's or Android Market's
                                    search to find the application.
joe
                                                                             
 Guitar 1
 
----|-----------------------|------------------------|-----------------------|
----|-----------------------|------------------------|-----------------------|
----|-------9----12----9----|--10----9----12----9----|-------9----12----9----|
----|--7--------------------|------------------------|--7--------------------|
----|-----------------------|------------------------|-----------------------|
----|-----------------------|------------------------|-----------------------|


                                                                              
------------------------|--------------------------|-------------------------|
------------------------|--------------------------|-------------------------|
--9-10-9--7----9--------|--------------------------|--10----9----7----7-7-7--|
------------------------|--10----10----14----10----|-------------------------|
------------------------|--------------------------|-------------------------|
------------------------|--------------------------|-------------------------|


                                                                          
-----------------------|-------------------------|-----------------------|
-----------------------|-------------------------|-----------------------|
-------9----10----9----|--9-10-9--7----10--------|-------9----12----9----|
--7--------------------|-------------------------|--7--------------------|
-----------------------|-------------------------|-----------------------|
-----------------------|-------------------------|-----------------------|


                                                                         
------------------------|-----------------------|-----------------------|
------------------------|--8--------------------|-----------------------|
--10----9----12----9----|-------10----9----7----|--7-9-7--5----7--------|
------------------------|-----------------------|-----------------------|
------------------------|-----------------------|-----------------------|
------------------------|-----------------------|-----------------------|


                                                                             
--------------------------|-------------------------|-----------------------|
--------------------------|-------------------------|-----------------------|
--------------------------|--10----9----7----7-7-7--|-------9----10----9----|
--10----10----14----10----|-------------------------|--7--------------------|
--------------------------|-------------------------|-----------------------|
--------------------------|-------------------------|-----------------------|


                                                                         
----------------------|------------------------|------------------------|
----------------------|------------------------|------------------------|
-------9----10--------|------------------------|------------------------|
--7-------------------|------------------------|------------------------|
----------------------|--7--7--7----7--7--7----|--7--7--7----7--7--7----|
----------------------|--7--7--7----7--7--7----|--7--7--7----7--7--7----|


                                                                           
------------------------|------------------------|------------------------|
------------------------|------------------------|------------------------|
------------------------|------------------------|------------------------|
------------------------|------------------------|------------------------|
--3--3--3----3--3--3----|--0--0--0----0--0--0----|--7--7--7----7--7--7----|
--3--3--3----3--3--3----|--0--0--0----0--0--0----|--7--7--7----7--7--7----|


                                                                           
------------------------|------------------------|------------------------|
------------------------|------------------------|------------------------|
------------------------|------------------------|------------------------|
------------------------|------------------------|------------------------|
--7--7--7----7--7--7----|--3--3--3----3--3--3----|--0--0--0----0--0--0----|
--7--7--7----7--7--7----|--3--3--3----3--3--3----|--0--0--0----0--0--0----|


                                                                           
------------------------|------------------------|------------------------|
------------------------|------------------------|------------------------|
------------------------|------------------------|------------------------|
------------------------|------------------------|------------------------|
--7--7--7----7--7--7----|--7--7--7----7--7--7----|--3--3--3----3--3--3----|
--7--7--7----7--7--7----|--7--7--7----7--7--7----|--3--3--3----3--3--3----|


                                                                           
------------------------|------------------------|------------------------|
------------------------|------------------------|------------------------|
------------------------|------------------------|------------------------|
------------------------|------------------------|------------------------|
--0--0--0----0--0--0----|--7--7--7----7--7--7----|--7--7--7----7--7--7----|
--0--0--0----0--0--0----|--7--7--7----7--7--7----|--7--7--7----7--7--7----|


                                                                         
------------------------|--------------------------|--------------------|
------------------------|--------------------------|--------------------|
------------------------|-------------------9--10--|--9------------7----|
------------------------|--------------------------|--------------------|
--3--3--3----3--3--3----|--0--0--0----0--0---------|--------------------|
--3--3--3----3--3--3----|--0--0--0----0--0---------|--------------------|


                                                                       
---------------------|---------------------|--------------------------|
---------------------|---------------------|--------------------------|
----------10----9----|--------------9--10--|--12------10------9-10-9--|
---------------------|---------------------|--------------------------|
---------------------|---------------------|--------------------------|
---------------------|---------------------|--------------------------|


                                                                  
----------------------|----------------------|-------------------|
----------------------|----------------------|-------------------|
--7--------10----9----|--------------9-10-9--|--9----------------|
----------------------|----------------------|-------------------|
----------------------|----------------------|-------------------|
----------------------|----------------------|-------------------|


                                                                 
---------------------|--------------------|---------------------|
---------------------|--------------------|---------------------|
--------------9--10--|--9------------7----|----------10----9----|
---------------------|--------------------|---------------------|
---------------------|--------------------|---------------------|
---------------------|--------------------|---------------------|


                                                                        
---------------------|--------------------------|----------------------|
---------------------|--------------------------|----------------------|
--------------9--10--|--12------10------9-10-9--|--7--------10----9----|
---------------------|--------------------------|----------------------|
---------------------|--------------------------|----------------------|
---------------------|--------------------------|----------------------|


                                                               
----------------------|-------------------|-------------------|
----------------------|-------------------|-------------------|
--------------9-10-9--|--9----------------|--------------9----|
----------------------|-------------------|-------------------|
----------------------|-------------------|-------------------|
----------------------|-------------------|-------------------|


                                                                           
------------------------|------------------------|------------------------|
------------------------|------------------------|------------------------|
------------------------|------------------------|------------------------|
------------------------|------------------------|------------------------|
--7--7--7----7--7--7----|--7--7--7----7--7--7----|--3--3--3----3--3--3----|
--7--7--7----7--7--7----|--7--7--7----7--7--7----|--3--3--3----3--3--3----|


                                                                           
------------------------|------------------------|------------------------|
------------------------|------------------------|------------------------|
------------------------|------------------------|------------------------|
------------------------|------------------------|------------------------|
--0--0--0----0--0--0----|--7--7--7----7--7--7----|--7--7--7----7--7--7----|
--0--0--0----0--0--0----|--7--7--7----7--7--7----|--7--7--7----7--7--7----|


                                                                        
------------------------|------------------------|---------------------|
------------------------|------------------------|---------------------|
------------------------|------------------------|---------------------|
--5--5--5----5--5--5----|--7--7--7----7--7--7----|--------9------------|
--3--3--3----3--3--3----|--5--5--5----5--5--5----|--7--7--7------------|
--3--3--3----3--3--3----|--5--5--5----5--5--5----|--7--7--7------------|


                                                            
------------------|---------------------|------------------|
------------------|---------------------|------------------|
------------------|---------------------|------------------|
------------------|--------5------------|------------------|
------------------|--3--3--3------------|------------------|
------------------|--3--3--3------------|------------------|


                                                                    
---------------------|------------------|--------------------------|
---------------------|------------------|--------------------------|
---------------------|------------------|--------------------------|
--------9------------|------------------|--5--------5--------7-----|
--7--7--7------------|------------------|-----3--3-----3--3-----3--|
--7--7--7------------|------------------|-----3--3-----3--3-----3--|


                                                                    
--------------------------|---------------------|------------------|
--------------------------|---------------------|------------------|
--------------------------|---------------------|------------------|
--7--------7--------7-----|--------9------------|------------------|
-----3--3-----3--3-----3--|--7--7--7------------|------------------|
-----3--3-----3--3-----3--|--7--7--7------------|------------------|


                                                               
---------------------|------------------|---------------------|
---------------------|------------------|---------------------|
---------------------|------------------|---------------------|
--------5------------|------------------|--------9------------|
--3--3--3------------|------------------|--7--7--7------------|
--3--3--3------------|------------------|--7--7--7------------|


                                                                         
------------------|--------------------------|--------------------------|
------------------|--------------------5-----|--3-----------------------|
------------------|--4--------5--------------|--------4-----5-----2-----|
------------------|--------------------------|--------------------------|
------------------|-----3--3-----3--3-----3--|-----3-----3-----3-----3--|
------------------|-----3--3-----3--3-----3--|-----3-----3-----3-----3--|


                                                      
--------------------------|--------------------------|
--------------------5-----|--3-----------------------|
--4--------5--------------|--------4-----5-----2-----|
--------------------------|--------------------------|
-----3--3-----3--3-----3--|-----3-----3-----3-----3--|
-----3--3-----3--3-----3--|-----3-----3-----3-----3--|


                                                      
--------------------------|--------------------------|
--------------------5-----|--3-----------------------|
--2--------4--------------|--------4-----5-----2-----|
--------------------------|--------------------------|
-----0--0-----0--0-----0--|-----0-----0-----0-----0--|
-----0--0-----0--0-----0--|-----0-----0-----0-----0--|


                                                      
--------------------------|--------------------------|
--------------------5-----|--3-----------------------|
--2--------4--------------|--------4-----5-----2-----|
--------------------------|--------------------------|
-----0--0-----0--0-----0--|-----0-----0-----0-----0--|
-----0--0-----0--0-----0--|-----0-----0-----0-----0--|


                                                      
--------------------------|--------------------------|
--------------------5-----|--3-----------------------|
--4--------5--------------|--------4-----5-----2-----|
--------------------------|--------------------------|
-----3--3-----3--3-----3--|-----3-----3-----3-----3--|
-----3--3-----3--3-----3--|-----3-----3-----3-----3--|


                                                      
--------------------------|--------------------------|
--------------------5-----|--3-----------------------|
--4--------5--------------|--------4-----5-----2-----|
--------------------------|--------------------------|
-----3--3-----3--3-----3--|-----3-----3-----3-----3--|
-----3--3-----3--3-----3--|-----3-----3-----3-----3--|


                                                      
--------------------------|--------------------------|
--------------------5-----|--3-----------------------|
--2--------4--------------|--------4-----5-----2-----|
--------------------------|--------------------------|
-----0--0-----0--0-----0--|-----0-----0-----0-----0--|
-----0--0-----0--0-----0--|-----0-----0-----0-----0--|


                                                      
--------------------------|--------------------------|
--------------------5-----|--3-----------------------|
--2--------4--------------|--------4-----5-----2-----|
--------------------------|--------------------------|
-----0--0-----0--0-----0--|-----0-----0-----0-----0--|
-----0--0-----0--0-----0--|-----0-----0-----0-----0--|


                                                                    
----------------------------|----|----------------------------|----|
----------------------------|----|----------------------------|----|
----------------------------|----|----------------------------|----|
----------------------------|----|----------------------------|----|
--7-7-7-7-7-7-7-7-7--7------|----|--3-3-3-3-3-3-3-3-3--3------|----|
--7-7-7-7-7-7-7-7-7--7------|----|--3-3-3-3-3-3-3-3-3--3------|----|


                                                                    
----------------------------|----|----------------------------|----|
----------------------------|----|----------------------------|----|
----------------------------|----|----------------------------|----|
----------------------------|----|----------------------------|----|
--7-7-7-7-7-7-7-7-7--7------|----|--0-0-0-0-0-0-0-0-0--0------|----|
--7-7-7-7-7-7-7-7-7--7------|----|--0-0-0-0-0-0-0-0-0--0------|----|


                                                                    
----------------------------|----|----------------------------|----|
----------------------------|----|----------------------------|----|
----------------------------|----|----------------------------|----|
----------------------------|----|----------------------------|----|
--7-7-7-7-7-7-7-7-7--7------|----|--3-3-3-3-3-3-3-3-3--3------|----|
--7-7-7-7-7-7-7-7-7--7------|----|--3-3-3-3-3-3-3-3-3--3------|----|


                                                               
----------------------------|----|----------------------------|
----------------------------|----|----------------------------|
----------------------------|----|----------------------------|
----------------------------|----|----------------------------|
--7-7-7-7-7-7-7-7-7--7------|----|--0-0-0-0-0-0-0-0-0--0------|
--7-7-7-7-7-7-7-7-7--7------|----|--0-0-0-0-0-0-0-0-0--0------|


                                                                               
------------------|----|----|----|----|----|----|----|----|----|----|----|----|
------------------|----|----|----|----|----|----|----|----|----|----|----|----|
------------------|----|----|----|----|----|----|----|----|----|----|----|----|
------------------|----|----|----|----|----|----|----|----|----|----|----|----|
------------------|----|----|----|----|----|----|----|----|----|----|----|----|
------------------|----|----|----|----|----|----|----|----|----|----|----|----|


                                                                      
----|----|----|----|------------------------|------------------------|
----|----|----|----|------------------------|------------------------|
----|----|----|----|------------------------|------------------------|
----|----|----|----|--7----------7----------|--7----------7----------|
----|----|----|----|--7----7--7--7----7--7--|--7----7--7--7----7--7--|
----|----|----|----|--7----7--7--7----7--7--|--7----7--7--7----7--7--|


                                                                           
------------------------|------------------------|------------------------|
------------------------|------------------------|------------------------|
------------------------|------------------------|------------------------|
--5----------5----------|--5----------5----------|--0----------0----------|
--5----5--5--5----5--5--|--5----5--5--5----5--5--|--0----0--0--0----0--0--|
--5----5--5--5----5--5--|--5----5--5--5----5--5--|--0----0--0--0----0--0--|


                                                                           
------------------------|------------------------|------------------------|
------------------------|------------------------|------------------------|
------------------------|------------------------|------------------------|
--0----------0----------|--3----------3----------|--2----------2----------|
--0----0--0--0----0--0--|--3----3--3--3----3--3--|--2----2--2--2----2--2--|
--0----0--0--0----0--0--|--3----3--3--3----3--3--|--2----2--2--2----2--2--|


                                                                           
------------------------|------------------------|------------------------|
------------------------|------------------------|------------------------|
------------------------|------------------------|------------------------|
--7----------7----------|--7----------7----------|--5----------5----------|
--7----7--7--7----7--7--|--7----7--7--7----7--7--|--5----5--5--5----5--5--|
--7----7--7--7----7--7--|--7----7--7--7----7--7--|--5----5--5--5----5--5--|


                                                                           
------------------------|------------------------|------------------------|
------------------------|------------------------|------------------------|
------------------------|------------------------|------------------------|
--5----------5----------|--0----------0----------|--0----------0----------|
--5----5--5--5----5--5--|--0----0--0--0----0--0--|--0----0--0--0----0--0--|
--5----5--5--5----5--5--|--0----0--0--0----0--0--|--0----0--0--0----0--0--|


                                                                          
------------------------|-----------------------|------------------------|
------------------------|-----------------------|------------------------|
------------------------|-----------------------|------------------------|
--3----------3----------|--2----------2----3----|------------------------|
--3----3--3--3----3--3--|--2----2--2--2----3----|--7--7--7----7--7--7----|
--3----3--3--3----3--3--|--2----2--2--2----3----|--7--7--7----7--7--7----|


                                                                           
------------------------|------------------------|------------------------|
------------------------|------------------------|------------------------|
------------------------|------------------------|------------------------|
------------------------|------------------------|------------------------|
--7--7--7----7--7--7----|--3--3--3----3--3--3----|--0--0--0----0--0--0----|
--7--7--7----7--7--7----|--3--3--3----3--3--3----|--0--0--0----0--0--0----|


                                                                           
------------------------|------------------------|------------------------|
------------------------|------------------------|------------------------|
------------------------|------------------------|------------------------|
------------------------|------------------------|------------------------|
--7--7--7----7--7--7----|--7--7--7----7--7--7----|--3--3--3----3--3--3----|
--7--7--7----7--7--7----|--7--7--7----7--7--7----|--3--3--3----3--3--3----|


                                                                           
------------------------|------------------------|------------------------|
------------------------|------------------------|------------------------|
------------------------|------------------------|------------------------|
------------------------|------------------------|------------------------|
--0--0--0----0--0--0----|--7--7--7----7--7--7----|--7--7--7----7--7--7----|
--0--0--0----0--0--0----|--7--7--7----7--7--7----|--7--7--7----7--7--7----|


                                                                           
------------------------|------------------------|------------------------|
------------------------|------------------------|------------------------|
------------------------|------------------------|------------------------|
------------------------|------------------------|------------------------|
--3--3--3----3--3--3----|--0--0--0----0--0--0----|--7--7--7----7--7--7----|
--3--3--3----3--3--3----|--0--0--0----0--0--0----|--7--7--7----7--7--7----|


                                                                             
------------------------|------------------------|--------------------------|
------------------------|------------------------|--------------------------|
------------------------|------------------------|-------------------9--10--|
------------------------|------------------------|--------------------------|
--7--7--7----7--7--7----|--3--3--3----3--3--3----|--0--0--0----0--0---------|
--7--7--7----7--7--7----|--3--3--3----3--3--3----|--0--0--0----0--0---------|


                                                                 
--------------------|---------------------|---------------------|
--------------------|---------------------|---------------------|
--9------------7----|----------10----9----|--------------9--10--|
--------------------|---------------------|---------------------|
--------------------|---------------------|---------------------|
--------------------|---------------------|---------------------|


                                                                         
--------------------------|----------------------|----------------------|
--------------------------|----------------------|----------------------|
--12------10------9-10-9--|--7--------10----9----|--------------9-10-9--|
--------------------------|----------------------|----------------------|
--------------------------|----------------------|----------------------|
--------------------------|----------------------|----------------------|


                                                               
-------------------|---------------------|--------------------|
-------------------|---------------------|--------------------|
--9----------------|--------------9--10--|--9------------7----|
-------------------|---------------------|--------------------|
-------------------|---------------------|--------------------|
-------------------|---------------------|--------------------|


                                                                       
---------------------|---------------------|--------------------------|
---------------------|---------------------|--------------------------|
----------10----9----|--------------9--10--|--12------10------9-10-9--|
---------------------|---------------------|--------------------------|
---------------------|---------------------|--------------------------|
---------------------|---------------------|--------------------------|


                                                                  
----------------------|----------------------|-------------------|
----------------------|----------------------|-------------------|
--7--------10----9----|--------------9-10-9--|--9----------------|
----------------------|----------------------|-------------------|
----------------------|----------------------|-------------------|
----------------------|----------------------|-------------------|


                                                                      
-------------------|------------------------|------------------------|
-------------------|------------------------|------------------------|
--------------9----|------------------------|------------------------|
-------------------|------------------------|------------------------|
-------------------|--7--7--7----7--7--7----|--7--7--7----7--7--7----|
-------------------|--7--7--7----7--7--7----|--7--7--7----7--7--7----|


                                                                           
------------------------|------------------------|------------------------|
------------------------|------------------------|------------------------|
------------------------|------------------------|------------------------|
------------------------|------------------------|------------------------|
--3--3--3----3--3--3----|--0--0--0----0--0--0----|--7--7--7----7--7--7----|
--3--3--3----3--3--3----|--0--0--0----0--0--0----|--7--7--7----7--7--7----|


                                                                           
------------------------|------------------------|------------------------|
------------------------|------------------------|------------------------|
------------------------|------------------------|------------------------|
------------------------|------------------------|------------------------|
--7--7--7----7--7--7----|--3--3--3----3--3--3----|--0--0--0----0--0--0----|
--7--7--7----7--7--7----|--3--3--3----3--3--3----|--0--0--0----0--0--0----|


                                                                    
----------------------------|----|----------------------------|----|
----------------------------|----|----------------------------|----|
----------------------------|----|----------------------------|----|
----------------------------|----|----------------------------|----|
--7-7-7-7-7-7-7-7-7--7------|----|--3-3-3-3-3-3-3-3-3--3------|----|
--7-7-7-7-7-7-7-7-7--7------|----|--3-3-3-3-3-3-3-3-3--3------|----|


                                                               
----------------------------|----|----------------------------|
----------------------------|----|----------------------------|
----------------------------|----|----------------------------|
----------------------------|----|----------------------------|
--7-7-7-7-7-7-7-7-7--7------|----|--0-0-0-0-0-0-0-0-0--0------|
--7-7-7-7-7-7-7-7-7--7------|----|--0-0-0-0-0-0-0-0-0--0------|


                                                                       
--------------------|------------------------|------------------------|
--------------------|------------------------|------------------------|
----------7----9----|------------------------|------------------------|
--------------------|--7----------7----------|--7----------7----------|
--------------------|--7----7--7--7----7--7--|--7----7--7--7----7--7--|
--------------------|--7----7--7--7----7--7--|--7----7--7--7----7--7--|


                                                                           
------------------------|------------------------|------------------------|
------------------------|------------------------|------------------------|
------------------------|------------------------|------------------------|
--5----------5----------|--5----------5----------|--0----------0----------|
--5----5--5--5----5--5--|--5----5--5--5----5--5--|--0----0--0--0----0--0--|
--5----5--5--5----5--5--|--5----5--5--5----5--5--|--0----0--0--0----0--0--|


                                                                           
------------------------|------------------------|------------------------|
------------------------|------------------------|------------------------|
------------------------|------------------------|------------------------|
--0----------0----------|--3----------3----------|--2----------2----------|
--0----0--0--0----0--0--|--3----3--3--3----3--3--|--2----2--2--2----2--2--|
--0----0--0--0----0--0--|--3----3--3--3----3--3--|--2----2--2--2----2--2--|


                                                                           
------------------------|------------------------|------------------------|
------------------------|------------------------|------------------------|
------------------------|------------------------|------------------------|
--7----------7----------|--7----------7----------|--5----------5----------|
--7----7--7--7----7--7--|--7----7--7--7----7--7--|--5----5--5--5----5--5--|
--7----7--7--7----7--7--|--7----7--7--7----7--7--|--5----5--5--5----5--5--|


                                                                           
------------------------|------------------------|------------------------|
------------------------|------------------------|------------------------|
------------------------|------------------------|------------------------|
--5----------5----------|--0----------0----------|--0----------0----------|
--5----5--5--5----5--5--|--0----0--0--0----0--0--|--0----0--0--0----0--0--|
--5----5--5--5----5--5--|--0----0--0--0----0--0--|--0----0--0--0----0--0--|


                                                                              
------------------------|----------------------|----|----|----|----|----|----|
------------------------|----------------------|----|----|----|----|----|----|
------------------------|----------------------|----|----|----|----|----|----|
--3----------3----------|--2----------2--------|----|----|----|----|----|----|
--3----3--3--3----3--3--|--2----2--2--2--------|----|----|----|----|----|----|
--3----3--3--3----3--3--|--2----2--2--2--------|----|----|----|----|----|----|


                                                                 
----|----|----|----|----|----|----|----|----|--------------3----|
----|----|----|----|----|----|----|----|----|-------------------|
----|----|----|----|----|----|----|----|----|-------------------|
----|----|----|----|----|----|----|----|----|-------------------|
----|----|----|----|----|----|----|----|----|-------------------|
----|----|----|----|----|----|----|----|----|-------------------|


                                                                           
--5----5--5--5----5--5--|--5----5--5--5----5--5--|--7----7--7--7----7--7--|
------------------------|------------------------|------------------------|
------------------------|------------------------|------------------------|
------------------------|------------------------|------------------------|
------------------------|------------------------|------------------------|
------------------------|------------------------|------------------------|


                                                                      
--7----7--7--7----7--7--|--12--------10----8----|------10------------|
------------------------|-----------------------|--------------------|
------------------------|-----------------------|--------------------|
------------------------|-----------------------|--------------------|
------------------------|-----------------------|--------------------|
------------------------|-----------------------|--------------------|


                                                                   
--13----------------|--12------------10--12--|--12----------------|
--------------------|------------------------|--------------------|
--------------------|------------------------|--------------------|
--------------------|------------------------|--------------------|
--------------------|------------------------|--------------------|
--------------------|------------------------|--------------------|


                                                                        
--12--------13----12----|--10------------10--8--|--7----7--5--3--------|
------------------------|-----------------------|----------------------|
------------------------|-----------------------|----------------------|
------------------------|-----------------------|----------------------|
------------------------|-----------------------|----------------------|
------------------------|-----------------------|----------------------|


                                                            
-------------------|-------------------|-------------------|
--5----------------|--6----------------|--8----------------|
-------------------|-------------------|-------------------|
-------------------|-------------------|-------------------|
-------------------|-------------------|-------------------|
-------------------|-------------------|-------------------|


                                                                           
------------------------|--12--------12--------|--13----12----10----12----|
--10--------12----13----|----------------------|--------------------------|
------------------------|----------------------|--------------------------|
------------------------|----------------------|--------------------------|
------------------------|----------------------|--------------------------|
------------------------|----------------------|--------------------------|


                                                                     
--8----10----10----10--8--|--7------------8--7--|--5----------------|
--------------------------|---------------------|-------------------|
--------------------------|---------------------|-------------------|
--------------------------|---------------------|-------------------|
--------------------------|---------------------|-------------------|
--------------------------|---------------------|-------------------|


                                                                  
--8--------7----8----|--13----------------|--12------------10----|
---------------------|--------------------|----------------------|
---------------------|--------------------|----------------------|
---------------------|--------------------|----------------------|
---------------------|--------------------|----------------------|
---------------------|--------------------|----------------------|


                                                       
--13----12--------10--12--|--13--12--10--8--10--------|
--------------------------|---------------------------|
--------------------------|---------------------------|
--------------------------|---------------------------|
--------------------------|---------------------------|
--------------------------|---------------------------|


                                                                              
--10--12--13--12--10--8--10--8--|--7----8--------7--8--|--5------------5--7--|
--------------------------------|----------------------|---------------------|
--------------------------------|----------------------|---------------------|
--------------------------------|----------------------|---------------------|
--------------------------------|----------------------|---------------------|
--------------------------------|----------------------|---------------------|


                                                         
--8--------7----8----|------------------13--12--10--12--|
---------------------|--10--12--13--12------------------|
---------------------|----------------------------------|
---------------------|----------------------------------|
---------------------|----------------------------------|
---------------------|----------------------------------|


                                 
--15--13--12--10--12--10--15----|
--------------------------------|
--------------------------------|
--------------------------------|
--------------------------------|
--------------------------------|


                                                   
--17-17-17-17-12-12-12-12-15-15-15-15-10-10-10-10-|
--------------------------------------------------|
--------------------------------------------------|
--------------------------------------------------|
--------------------------------------------------|
--------------------------------------------------|


                                                                    
--13-13-13-13-8-8-8-8-12--------|------------------13--12--10--12--|
--------------------------------|--10--12--13--12------------------|
--------------------------------|----------------------------------|
--------------------------------|----------------------------------|
--------------------------------|----------------------------------|
--------------------------------|----------------------------------|


                                                                     
--13----12----12--------|--5----7----7--------|--7----8----8--------|
------------------------|---------------------|---------------------|
------------------------|---------------------|---------------------|
------------------------|---------------------|---------------------|
------------------------|---------------------|---------------------|
------------------------|---------------------|---------------------|


                                                                    
------------------13--12--10--12--|--15--13--12--10--12--10--12----|
--10--12--13--12------------------|--------------------------------|
----------------------------------|--------------------------------|
----------------------------------|--------------------------------|
----------------------------------|--------------------------------|
----------------------------------|--------------------------------|


                                                   
--17-17-17-17-12-12-12-12-15-15-15-15-10-10-10-10-|
--------------------------------------------------|
--------------------------------------------------|
--------------------------------------------------|
--------------------------------------------------|
--------------------------------------------------|


                                           
--13-13-13-13-8-8-8-8-12-12-12-12-5-5-5-5-|
------------------------------------------|
------------------------------------------|
------------------------------------------|
------------------------------------------|
------------------------------------------|


                                               
--15-15-15-15-10-10-10-10-13-13-13-13-8-8-8-8-|
----------------------------------------------|
----------------------------------------------|
----------------------------------------------|
----------------------------------------------|
----------------------------------------------|


                                                                       
--12-12-12-12-13-13-13-13-12-12-12-12-10----|--7--8--8--8--8----8--7--|
--------------------------------------------|-------------------------|
--------------------------------------------|-------------------------|
--------------------------------------------|-------------------------|
--------------------------------------------|-------------------------|
--------------------------------------------|-------------------------|


                                                                                
--13--12--12--12------10----|--13-13-13-13-13-13-13-13-12-12-12-12-12-12-12-12-|
----------------------------|--------------------------------------------------|
----------------------------|--------------------------------------------------|
----------------------------|--------------------------------------------------|
----------------------------|--------------------------------------------------|
----------------------------|--------------------------------------------------|


                                                                             
--15-15-15-15-15-15-15-15-13-13-13-13-13-13-13-13-|--12----------------|----|
--------------------------------------------------|--------------------|----|
--------------------------------------------------|--------------------|----|
--------------------------------------------------|--------------------|----|
--------------------------------------------------|--------------------|----|
--------------------------------------------------|--------------------|----|


                                    
----|----|----|----|----|----|----||
----|----|----|----|----|----|----||
----|----|----|----|----|----|----||
----|----|----|----|----|----|----||
----|----|----|----|----|----|----||
----|----|----|----|----|----|----||


comments
We did not receive enough feedback on this tab! Please rate:
print report bad tab
1 2 3 4 5
I want to post or [tab]
guest
You may want to rate the tab now too:
select rating
Please do not post tabs as comments. Select "correction" instead!