Oops, an error
Loading. Please wait.

Forged By Fury Tab

ver2
ver2

Whole song

More versions @911Tabs.com
118 views 1 this week
no commentswrite comment
1 2 3 4 5
please rate
Autoscroll
+/-
esc
set tempo
stop
Contributor
Difficulty
Tuning
advanced
C G C F A D
Hey! There's an official Ultimate Guitar app which is ideal
for learning songs when you're away from computer. Get the app
WARNING: You are trying to view
                                    content from Ultimate-Guitar.com
                                    in an unauthorized application,
                                    which is prohibited.

                                    Please use an official Ultimate
                                    Guitar Tabs application for iPhone,
                                    iPad or Android to access legitimate
                                    chords, guitar, bass, and drum tabs
                                    from Ultimate-Guitar.com database.

                                    Type "ultimate guitar tabs" in Apple
                                    App Store's or Android Market's
                                    search to find the application.
roger

  Guitar 2               
D||------|------|------|------|------|------|------|------|------|------|------|
A||------|------|------|------|------|------|------|------|------|------|------|
F||------|------|------|------|------|------|------|------|------|------|------|
C||------|------|------|------|------|------|------|------|------|------|------|
G||------|------|------|------|------|------|------|------|------|------|------|
C||------|------|------|------|------|------|------|------|------|------|------|


                                                                             
------|------|------|------|------|------|------|------|------|------|------|
------|------|------|------|------|------|------|------|------|------|------|
------|------|------|------|------|------|------|------|------|------|------|
------|------|------|------|------|------|------|------|------|------|------|
------|------|------|------|------|------|------|------|------|------|------|
------|------|------|------|------|------|------|------|------|------|------|


                                                                      
------|------|------|------|------|------|------|------|------|------|
------|------|------|------|------|------|------|------|------|------|
------|------|------|------|------|------|------|------|------|------|
------|------|------|------|------|------|------|------|------|------|
------|------|------|------|------|------|------|------|------|------|
------|------|------|------|------|------|------|------|------|------|


                                                             
-------------------|--------------------|-------------------|
-------------------|--------------------|-------------------|
-------------------|--------------------|-------------------|
--7----------------|--------------7--7--|--7----------------|
--7----------------|--------------7--7--|--7----------------|
--7----------------|--------------7--7--|--7----------------|


                                                              
--------------------|-------------------|--------------------|
--------------------|-------------------|--------------------|
--------------------|-------------------|--------------------|
--------------7--7--|--3----------------|--------------3--3--|
--------------7--7--|--3----------------|--------------3--3--|
--------------7--7--|--3----------------|--------------3--3--|


                                                             
-------------------|--------------------|-------------------|
-------------------|--------------------|-------------------|
-------------------|--------------------|-------------------|
--0----------------|--------------0--0--|--7----------------|
--0----------------|--------------0--0--|--7----------------|
--0----------------|--------------0--0--|--7----------------|


                                                              
--------------------|-------------------|--------------------|
--------------------|-------------------|--------------------|
--------------------|-------------------|--------------------|
--------------7--7--|--7----------------|--------------7--7--|
--------------7--7--|--7----------------|--------------7--7--|
--------------7--7--|--7----------------|--------------7--7--|


                                                                                
-------------------|--------------------|-------------------|------------------|
-------------------|--------------------|-------------------|------------------|
-------------------|--------------------|-------------------|------------------|
--3----------------|--------------3--3--|--0----------------|------------------|
--3----------------|--------------3--3--|--0----------------|------------------|
--3----------------|--------------3--3--|--0----------------|------------------|


                                                                           
------------------------|------------------------|------------------------|
------------------------|------------------------|------------------------|
------------------------|------------------------|------------------------|
------------------------|------------------------|------------------------|
--7--7--7----7--7--7----|--7--7--7----7--7--7----|--3--3--3----3--3--3----|
--7--7--7----7--7--7----|--7--7--7----7--7--7----|--3--3--3----3--3--3----|


                                                                           
------------------------|------------------------|------------------------|
------------------------|------------------------|------------------------|
------------------------|------------------------|------------------------|
------------------------|------------------------|------------------------|
--0--0--0----0--0--0----|--7--7--7----7--7--7----|--7--7--7----7--7--7----|
--0--0--0----0--0--0----|--7--7--7----7--7--7----|--7--7--7----7--7--7----|


                                                                           
------------------------|------------------------|------------------------|
------------------------|------------------------|------------------------|
------------------------|------------------------|------------------------|
------------------------|------------------------|------------------------|
--3--3--3----3--3--3----|--0--0--0----0--0--0----|--7--7--7----7--7--7----|
--3--3--3----3--3--3----|--0--0--0----0--0--0----|--7--7--7----7--7--7----|


                                                                           
------------------------|------------------------|------------------------|
------------------------|------------------------|------------------------|
------------------------|------------------------|------------------------|
------------------------|------------------------|------------------------|
--7--7--7----7--7--7----|--3--3--3----3--3--3----|--0--0--0----0--0--0----|
--7--7--7----7--7--7----|--3--3--3----3--3--3----|--0--0--0----0--0--0----|


                                                                           
------------------------|------------------------|------------------------|
------------------------|------------------------|------------------------|
------------------------|------------------------|------------------------|
------------------------|------------------------|------------------------|
--7--7--7----7--7--7----|--7--7--7----7--7--7----|--3--3--3----3--3--3----|
--7--7--7----7--7--7----|--7--7--7----7--7--7----|--3--3--3----3--3--3----|


                                                                 
-------------------------|-------------------|------------------|
-------------------------|-------------------|------------------|
-------------------------|-------------------|------------------|
-------------------------|--7----------------|------------------|
--0--0--0----0--0--0--0--|--7----------------|------------------|
--0--0--0----0--0--0--0--|--7----------------|------------------|


                                                                                
-------------------|--------------------|-------------------|------------------|
-------------------|--------------------|-------------------|------------------|
-------------------|--------------------|-------------------|------------------|
--7----------------|--------------7--7--|--0----------------|------------------|
--7----------------|--------------7--7--|--0----------------|------------------|
--7----------------|--------------7--7--|--0----------------|------------------|


                                                                                
-------------------|--------------------|-------------------|------------------|
-------------------|--------------------|-------------------|------------------|
-------------------|--------------------|-------------------|------------------|
--0----------------|--------------0--0--|--7----------------|------------------|
--0----------------|--------------0--0--|--7----------------|------------------|
--0----------------|--------------0--0--|--7----------------|------------------|


                                                                                
-------------------|--------------------|-------------------|------------------|
-------------------|--------------------|-------------------|------------------|
-------------------|--------------------|-------------------|------------------|
--7----------------|--------------7--7--|--0----------------|------------------|
--7----------------|--------------7--7--|--0----------------|------------------|
--7----------------|--------------7--7--|--0----------------|------------------|


                                                                  
-------------------|--------------------|------------------------|
-------------------|--------------------|------------------------|
-------------------|--------------------|------------------------|
--0----------------|--------------0--0--|------------------------|
--0----------------|--------------0--0--|--7--7--7----7--7--7----|
--0----------------|--------------0--0--|--7--7--7----7--7--7----|


                                                                           
------------------------|------------------------|------------------------|
------------------------|------------------------|------------------------|
------------------------|------------------------|------------------------|
------------------------|------------------------|------------------------|
--7--7--7----7--7--7----|--3--3--3----3--3--3----|--0--0--0----0--0--0----|
--7--7--7----7--7--7----|--3--3--3----3--3--3----|--0--0--0----0--0--0----|


                                                                           
------------------------|------------------------|------------------------|
------------------------|------------------------|------------------------|
------------------------|------------------------|------------------------|
------------------------|------------------------|--5--5--5----5--5--5----|
--7--7--7----7--7--7----|--7--7--7----7--7--7----|--3--3--3----3--3--3----|
--7--7--7----7--7--7----|--7--7--7----7--7--7----|--3--3--3----3--3--3----|


                                                                  
------------------------|---------------------|------------------|
------------------------|---------------------|------------------|
------------------------|---------------------|------------------|
--7--7--7----7--7--7----|--------9------------|------------------|
--5--5--5----5--5--5----|--7--7--7------------|------------------|
--5--5--5----5--5--5----|--7--7--7------------|------------------|


                                                               
---------------------|------------------|---------------------|
---------------------|------------------|---------------------|
---------------------|------------------|---------------------|
--------5------------|------------------|--------9------------|
--3--3--3------------|------------------|--7--7--7------------|
--3--3--3------------|------------------|--7--7--7------------|


                                                                         
------------------|--------------------------|--------------------------|
------------------|--------------------------|--------------------------|
------------------|--------------------------|--------------------------|
------------------|--5--------5--------7-----|--7--------7--------7-----|
------------------|-----3--3-----3--3-----3--|-----3--3-----3--3-----3--|
------------------|-----3--3-----3--3-----3--|-----3--3-----3--3-----3--|


                                                               
---------------------|------------------|---------------------|
---------------------|------------------|---------------------|
---------------------|------------------|---------------------|
--------9------------|------------------|--------5------------|
--7--7--7------------|------------------|--3--3--3------------|
--7--7--7------------|------------------|--3--3--3------------|


                                                            
------------------|---------------------|------------------|
------------------|---------------------|------------------|
------------------|---------------------|------------------|
------------------|--------9------------|------------------|
------------------|--7--7--7------------|------------------|
------------------|--7--7--7------------|------------------|


                                                      
--------------------------|--------------------------|
--------------------------|--------------------------|
--------------------5-----|--4-----------------------|
--5--------7--------------|--------5-----7-----3-----|
-----3--3-----3--3-----3--|-----3-----3-----3-----3--|
-----3--3-----3--3-----3--|-----3-----3-----3-----3--|


                                                      
--------------------------|--------------------------|
--------------------------|--------------------------|
--------------------5-----|--4-----------------------|
--5--------7--------------|--------5-----7-----3-----|
-----3--3-----3--3-----3--|-----3-----3-----3-----3--|
-----3--3-----3--3-----3--|-----3-----3-----3-----3--|


                                                      
--------------------------|--------------------------|
--------------------------|--------------------------|
--------------------5-----|--4-----------------------|
--3--------5--------------|--------5-----7-----3-----|
-----0--0-----0--0-----0--|-----0-----0-----0-----0--|
-----0--0-----0--0-----0--|-----0-----0-----0-----0--|


                                                      
--------------------------|--------------------------|
--------------------------|--------------------------|
--------------------5-----|--4-----------------------|
--3--------5--------------|--------5-----7-----3-----|
-----0--0-----0--0-----0--|-----0-----0-----0-----0--|
-----0--0-----0--0-----0--|-----0-----0-----0-----0--|


                                                      
--------------------------|--------------------------|
--------------------------|--------------------------|
--------------------5-----|--4-----------------------|
--5--------7--------------|--------5-----7-----3-----|
-----3--3-----3--3-----3--|-----3-----3-----3-----3--|
-----3--3-----3--3-----3--|-----3-----3-----3-----3--|


                                                      
--------------------------|--------------------------|
--------------------------|--------------------------|
--------------------5-----|--4-----------------------|
--5--------7--------------|--------5-----7-----3-----|
-----3--3-----3--3-----3--|-----3-----3-----3-----3--|
-----3--3-----3--3-----3--|-----3-----3-----3-----3--|


                                                      
--------------------------|--------------------------|
--------------------------|--------------------------|
--------------------5-----|--4-----------------------|
--3--------5--------------|--------5-----7-----3-----|
-----0--0-----0--0-----0--|-----0-----0-----0-----0--|
-----0--0-----0--0-----0--|-----0-----0-----0-----0--|


                                                      
--------------------------|--------------------------|
--------------------------|--------------------------|
--------------------5-----|--4-----------------------|
--3--------5--------------|--------5-----7-----3-----|
-----0--0-----0--0-----0--|-----0-----0-----0-----0--|
-----0--0-----0--0-----0--|-----0-----0-----0-----0--|


                                                                    
----------------------------|----|----------------------------|----|
----------------------------|----|----------------------------|----|
----------------------------|----|----------------------------|----|
----------------------------|----|----------------------------|----|
--7-7-7-7-7-7-7-7-7--7------|----|--3-3-3-3-3-3-3-3-3--3------|----|
--7-7-7-7-7-7-7-7-7--7------|----|--3-3-3-3-3-3-3-3-3--3------|----|


                                                                    
----------------------------|----|----------------------------|----|
----------------------------|----|----------------------------|----|
----------------------------|----|----------------------------|----|
----------------------------|----|----------------------------|----|
--7-7-7-7-7-7-7-7-7--7------|----|--0-0-0-0-0-0-0-0-0--0------|----|
--7-7-7-7-7-7-7-7-7--7------|----|--0-0-0-0-0-0-0-0-0--0------|----|


                                                                    
----------------------------|----|----------------------------|----|
----------------------------|----|----------------------------|----|
----------------------------|----|----------------------------|----|
----------------------------|----|----------------------------|----|
--7-7-7-7-7-7-7-7-7--7------|----|--3-3-3-3-3-3-3-3-3--3------|----|
--7-7-7-7-7-7-7-7-7--7------|----|--3-3-3-3-3-3-3-3-3--3------|----|


                                                                              
----------------------------|----|----------------------------|----|----|----|
----------------------------|----|----------------------------|----|----|----|
----------------------------|----|----------------------------|----|----|----|
----------------------------|----|----------------------------|----|----|----|
--7-7-7-7-7-7-7-7-7--7------|----|--0-0-0-0-0-0-0-0-0--0------|----|----|----|
--7-7-7-7-7-7-7-7-7--7------|----|--0-0-0-0-0-0-0-0-0--0------|----|----|----|


                                                                      
----|----|----|----|----|----|----|----|----|----|----|----|----|----|
----|----|----|----|----|----|----|----|----|----|----|----|----|----|
----|----|----|----|----|----|----|----|----|----|----|----|----|----|
----|----|----|----|----|----|----|----|----|----|----|----|----|----|
----|----|----|----|----|----|----|----|----|----|----|----|----|----|
----|----|----|----|----|----|----|----|----|----|----|----|----|----|


                                                                           
------------------------|------------------------|------------------------|
------------------------|------------------------|------------------------|
------------------------|------------------------|------------------------|
--7----------7----------|--7----------7----------|--5----------5----------|
--7----7--7--7----7--7--|--7----7--7--7----7--7--|--5----5--5--5----5--5--|
--7----7--7--7----7--7--|--7----7--7--7----7--7--|--5----5--5--5----5--5--|


                                                                           
------------------------|------------------------|------------------------|
------------------------|------------------------|------------------------|
------------------------|------------------------|------------------------|
--5----------5----------|--0----------0----------|--0----------0----------|
--5----5--5--5----5--5--|--0----0--0--0----0--0--|--0----0--0--0----0--0--|
--5----5--5--5----5--5--|--0----0--0--0----0--0--|--0----0--0--0----0--0--|


                                                                           
------------------------|------------------------|------------------------|
------------------------|------------------------|------------------------|
------------------------|------------------------|------------------------|
--3----------3----------|--2----------2----------|--7----------7----------|
--3----3--3--3----3--3--|--2----2--2--2----2--2--|--7----7--7--7----7--7--|
--3----3--3--3----3--3--|--2----2--2--2----2--2--|--7----7--7--7----7--7--|


                                                                           
------------------------|------------------------|------------------------|
------------------------|------------------------|------------------------|
------------------------|------------------------|------------------------|
--7----------7----------|--5----------5----------|--5----------5----------|
--7----7--7--7----7--7--|--5----5--5--5----5--5--|--5----5--5--5----5--5--|
--7----7--7--7----7--7--|--5----5--5--5----5--5--|--5----5--5--5----5--5--|


                                                                           
------------------------|------------------------|------------------------|
------------------------|------------------------|------------------------|
------------------------|------------------------|------------------------|
--0----------0----------|--0----------0----------|--3----------3----------|
--0----0--0--0----0--0--|--0----0--0--0----0--0--|--3----3--3--3----3--3--|
--0----0--0--0----0--0--|--0----0--0--0----0--0--|--3----3--3--3----3--3--|


                                                                          
-----------------------|------------------------|------------------------|
-----------------------|------------------------|------------------------|
-----------------------|------------------------|------------------------|
--2----------2----3----|------------------------|------------------------|
--2----2--2--2----3----|--7--7--7----7--7--7----|--7--7--7----7--7--7----|
--2----2--2--2----3----|--7--7--7----7--7--7----|--7--7--7----7--7--7----|


                                                                           
------------------------|------------------------|------------------------|
------------------------|------------------------|------------------------|
------------------------|------------------------|------------------------|
------------------------|------------------------|------------------------|
--3--3--3----3--3--3----|--0--0--0----0--0--0----|--7--7--7----7--7--7----|
--3--3--3----3--3--3----|--0--0--0----0--0--0----|--7--7--7----7--7--7----|


                                                                           
------------------------|------------------------|------------------------|
------------------------|------------------------|------------------------|
------------------------|------------------------|------------------------|
------------------------|------------------------|------------------------|
--7--7--7----7--7--7----|--3--3--3----3--3--3----|--0--0--0----0--0--0----|
--7--7--7----7--7--7----|--3--3--3----3--3--3----|--0--0--0----0--0--0----|


                                                                           
------------------------|------------------------|------------------------|
------------------------|------------------------|------------------------|
------------------------|------------------------|------------------------|
------------------------|------------------------|------------------------|
--7--7--7----7--7--7----|--7--7--7----7--7--7----|--3--3--3----3--3--3----|
--7--7--7----7--7--7----|--7--7--7----7--7--7----|--3--3--3----3--3--3----|


                                                                           
------------------------|------------------------|------------------------|
------------------------|------------------------|------------------------|
------------------------|------------------------|------------------------|
------------------------|------------------------|------------------------|
--0--0--0----0--0--0----|--7--7--7----7--7--7----|--7--7--7----7--7--7----|
--0--0--0----0--0--0----|--7--7--7----7--7--7----|--7--7--7----7--7--7----|


                                                                       
------------------------|-------------------------|-------------------|
------------------------|-------------------------|-------------------|
------------------------|-------------------------|-------------------|
------------------------|-------------------------|--7----------------|
--3--3--3----3--3--3----|--0--0--0----0--0--0--0--|--7----------------|
--3--3--3----3--3--3----|--0--0--0----0--0--0--0--|--7----------------|


                                                                                
------------------|-------------------|--------------------|-------------------|
------------------|-------------------|--------------------|-------------------|
------------------|-------------------|--------------------|-------------------|
------------------|--7----------------|--------------7--7--|--0----------------|
------------------|--7----------------|--------------7--7--|--0----------------|
------------------|--7----------------|--------------7--7--|--0----------------|


                                                                                
------------------|-------------------|--------------------|-------------------|
------------------|-------------------|--------------------|-------------------|
------------------|-------------------|--------------------|-------------------|
------------------|--0----------------|--------------0--0--|--7----------------|
------------------|--0----------------|--------------0--0--|--7----------------|
------------------|--0----------------|--------------0--0--|--7----------------|


                                                                                
------------------|-------------------|--------------------|-------------------|
------------------|-------------------|--------------------|-------------------|
------------------|-------------------|--------------------|-------------------|
------------------|--7----------------|--------------7--7--|--0----------------|
------------------|--7----------------|--------------7--7--|--0----------------|
------------------|--7----------------|--------------7--7--|--0----------------|


                                                            
------------------|-------------------|--------------------|
------------------|-------------------|--------------------|
------------------|-------------------|--------------------|
------------------|--0----------------|--------------0--0--|
------------------|--0----------------|--------------0--0--|
------------------|--0----------------|--------------0--0--|


                                                                           
------------------------|------------------------|------------------------|
------------------------|------------------------|------------------------|
------------------------|------------------------|------------------------|
------------------------|------------------------|------------------------|
--7--7--7----7--7--7----|--7--7--7----7--7--7----|--3--3--3----3--3--3----|
--7--7--7----7--7--7----|--7--7--7----7--7--7----|--3--3--3----3--3--3----|


                                                                           
------------------------|------------------------|------------------------|
------------------------|------------------------|------------------------|
------------------------|------------------------|------------------------|
------------------------|------------------------|------------------------|
--0--0--0----0--0--0----|--7--7--7----7--7--7----|--7--7--7----7--7--7----|
--0--0--0----0--0--0----|--7--7--7----7--7--7----|--7--7--7----7--7--7----|


                                                                               
------------------------|------------------------|----------------------------|
------------------------|------------------------|----------------------------|
------------------------|------------------------|----------------------------|
------------------------|------------------------|----------------------------|
--3--3--3----3--3--3----|--0--0--0----0--0--0----|--7-7-7-7-7-7-7-7-7--7------|
--3--3--3----3--3--3----|--0--0--0----0--0--0----|--7-7-7-7-7-7-7-7-7--7------|


                                                                         
----|----------------------------|----|----------------------------|----|
----|----------------------------|----|----------------------------|----|
----|----------------------------|----|----------------------------|----|
----|----------------------------|----|----------------------------|----|
----|--3-3-3-3-3-3-3-3-3--3------|----|--7-7-7-7-7-7-7-7-7--7------|----|
----|--3-3-3-3-3-3-3-3-3--3------|----|--7-7-7-7-7-7-7-7-7--7------|----|


                                                                            
----------------------------|---------------------|------------------------|
----------------------------|---------------------|------------------------|
----------------------------|---------------------|------------------------|
----------------------------|----------9----10----|--7----------7----------|
--0-0-0-0-0-0-0-0-0--0------|---------------------|--7----7--7--7----7--7--|
--0-0-0-0-0-0-0-0-0--0------|---------------------|--7----7--7--7----7--7--|


                                                                           
------------------------|------------------------|------------------------|
------------------------|------------------------|------------------------|
------------------------|------------------------|------------------------|
--7----------7----------|--5----------5----------|--5----------5----------|
--7----7--7--7----7--7--|--5----5--5--5----5--5--|--5----5--5--5----5--5--|
--7----7--7--7----7--7--|--5----5--5--5----5--5--|--5----5--5--5----5--5--|


                                                                           
------------------------|------------------------|------------------------|
------------------------|------------------------|------------------------|
------------------------|------------------------|------------------------|
--0----------0----------|--0----------0----------|--3----------3----------|
--0----0--0--0----0--0--|--0----0--0--0----0--0--|--3----3--3--3----3--3--|
--0----0--0--0----0--0--|--0----0--0--0----0--0--|--3----3--3--3----3--3--|


                                                                           
------------------------|------------------------|------------------------|
------------------------|------------------------|------------------------|
------------------------|------------------------|------------------------|
--2----------2----------|--7----------7----------|--7----------7----------|
--2----2--2--2----2--2--|--7----7--7--7----7--7--|--7----7--7--7----7--7--|
--2----2--2--2----2--2--|--7----7--7--7----7--7--|--7----7--7--7----7--7--|


                                                                           
------------------------|------------------------|------------------------|
------------------------|------------------------|------------------------|
------------------------|------------------------|------------------------|
--5----------5----------|--5----------5----------|--0----------0----------|
--5----5--5--5----5--5--|--5----5--5--5----5--5--|--0----0--0--0----0--0--|
--5----5--5--5----5--5--|--5----5--5--5----5--5--|--0----0--0--0----0--0--|


                                                                              
------------------------|------------------------|----------------------|----|
------------------------|------------------------|----------------------|----|
------------------------|------------------------|----------------------|----|
--0----------0----------|--3----------3----------|--2----------2--------|----|
--0----0--0--0----0--0--|--3----3--3--3----3--3--|--2----2--2--2--------|----|
--0----0--0--0----0--0--|--3----3--3--3----3--3--|--2----2--2--2--------|----|


                                                                           
----|----|----|----|----|----|----|----|----|----|----|----|----|----|----|
----|----|----|----|----|----|----|----|----|----|----|----|----|----|----|
----|----|----|----|----|----|----|----|----|----|----|----|----|----|----|
----|----|----|----|----|----|----|----|----|----|----|----|----|----|----|
----|----|----|----|----|----|----|----|----|----|----|----|----|----|----|
----|----|----|----|----|----|----|----|----|----|----|----|----|----|----|


                                                                           
------------------------|------------------------|------------------------|
------------------------|------------------------|------------------------|
------------------------|------------------------|------------------------|
--7----------7----------|--7----------7----------|--5----------5----------|
--7----7--7--7----7--7--|--7----7--7--7----7--7--|--5----5--5--5----5--5--|
--7----7--7--7----7--7--|--7----7--7--7----7--7--|--5----5--5--5----5--5--|


                                                                           
------------------------|------------------------|------------------------|
------------------------|------------------------|------------------------|
------------------------|------------------------|------------------------|
--5----------5----------|--0----------0----------|--0----------0----------|
--5----5--5--5----5--5--|--0----0--0--0----0--0--|--0----0--0--0----0--0--|
--5----5--5--5----5--5--|--0----0--0--0----0--0--|--0----0--0--0----0--0--|


                                                                           
------------------------|------------------------|------------------------|
------------------------|------------------------|------------------------|
------------------------|------------------------|------------------------|
--3----------3----------|--2----------2----------|--7----------7----------|
--3----3--3--3----3--3--|--2----2--2--2----2--2--|--7----7--7--7----7--7--|
--3----3--3--3----3--3--|--2----2--2--2----2--2--|--7----7--7--7----7--7--|


                                                                           
------------------------|------------------------|------------------------|
------------------------|------------------------|------------------------|
------------------------|------------------------|------------------------|
--7----------7----------|--5----------5----------|--5----------5----------|
--7----7--7--7----7--7--|--5----5--5--5----5--5--|--5----5--5--5----5--5--|
--7----7--7--7----7--7--|--5----5--5--5----5--5--|--5----5--5--5----5--5--|


                                                                           
------------------------|------------------------|------------------------|
------------------------|------------------------|------------------------|
------------------------|------------------------|------------------------|
--0----------0----------|--0----------0----------|--3----------3----------|
--0----0--0--0----0--0--|--0----0--0--0----0--0--|--3----3--3--3----3--3--|
--0----0--0--0----0--0--|--0----0--0--0----0--0--|--3----3--3--3----3--3--|


                                                                           
------------------------|----------------------|--------------------------|
------------------------|--13--------13--------|--15----13----12----13----|
------------------------|----------------------|--------------------------|
--2----------2----------|----------------------|--------------------------|
--2----2--2--2----2--2--|----------------------|--------------------------|
--2----2--2--2----2--2--|----------------------|--------------------------|


                                                                        
----------------------------|----------------------|-------------------|
--10----12----12----12--10--|--8------------10--8--|--6----------------|
----------------------------|----------------------|-------------------|
----------------------------|----------------------|-------------------|
----------------------------|----------------------|-------------------|
----------------------------|----------------------|-------------------|


                                                                    
-----------------------|--------------------|----------------------|
--10--------8----10----|--15----------------|--13------------12----|
-----------------------|--------------------|----------------------|
-----------------------|--------------------|----------------------|
-----------------------|--------------------|----------------------|
-----------------------|--------------------|----------------------|


                                                        
--------------------------|----------------------------|
--15----13--------12--13--|--15--13--12--10--12--------|
--------------------------|----------------------------|
--------------------------|----------------------------|
--------------------------|----------------------------|
--------------------------|----------------------------|


                                                            
----------------------------------|------------------------|
--12--13--15--13--12--10--12--10--|--8----10--------8--10--|
----------------------------------|------------------------|
----------------------------------|------------------------|
----------------------------------|------------------------|
----------------------------------|------------------------|


                                              
---------------------|-----------------------|
--6------------6--8--|--10--------8----10----|
---------------------|-----------------------|
---------------------|-----------------------|
---------------------|-----------------------|
---------------------|-----------------------|


                                                                    
----------------------------------|--------------------------------|
------------------15--13--12--13--|--17--15--13--12--13--12--17----|
--10--12--14--12------------------|--------------------------------|
----------------------------------|--------------------------------|
----------------------------------|--------------------------------|
----------------------------------|--------------------------------|


                                                   
--------------------------------------------------|
--18-18-18-18-13-13-13-13-17-17-17-17-12-12-12-12-|
--------------------------------------------------|
--------------------------------------------------|
--------------------------------------------------|
--------------------------------------------------|


                                                                        
------------------------------------|----------------------------------|
--15-15-15-15-10-10-10-10-13--------|------------------15--13--12--13--|
------------------------------------|--10--12--14--12------------------|
------------------------------------|----------------------------------|
------------------------------------|----------------------------------|
------------------------------------|----------------------------------|


                                                                       
------------------------|---------------------|-----------------------|
--15----13----13--------|--6----8----8--------|--8----10----10--------|
------------------------|---------------------|-----------------------|
------------------------|---------------------|-----------------------|
------------------------|---------------------|-----------------------|
------------------------|---------------------|-----------------------|


                                                                    
----------------------------------|--------------------------------|
------------------15--13--12--13--|--17--15--13--12--13--12--17----|
--10--12--14--12------------------|--------------------------------|
----------------------------------|--------------------------------|
----------------------------------|--------------------------------|
----------------------------------|--------------------------------|


                                                   
--------------------------------------------------|
--18-18-18-18-13-13-13-13-17-17-17-17-12-12-12-12-|
--------------------------------------------------|
--------------------------------------------------|
--------------------------------------------------|
--------------------------------------------------|


                                               
----------------------------------------------|
--15-15-15-15-10-10-10-10-13-13-13-13-6-6-6-6-|
----------------------------------------------|
----------------------------------------------|
----------------------------------------------|
----------------------------------------------|


                                                   
--------------------------------------------------|
--17-17-17-17-12-12-12-12-15-15-15-15-10-10-10-10-|
--------------------------------------------------|
--------------------------------------------------|
--------------------------------------------------|
--------------------------------------------------|


                                                                            
--------------------------------------------|------------------------------|
--13-13-13-13-15-15-15-15-13-13-13-13-12----|--8--10--10--10--10----10--8--|
--------------------------------------------|------------------------------|
--------------------------------------------|------------------------------|
--------------------------------------------|------------------------------|
--------------------------------------------|------------------------------|


                                                                                
----------------------------|--------------------------------------------------|
--15--13--13--13------12----|--15-15-15-15-15-15-15-15-13-13-13-13-13-13-13-13-|
----------------------------|--------------------------------------------------|
----------------------------|--------------------------------------------------|
----------------------------|--------------------------------------------------|
----------------------------|--------------------------------------------------|


                                                                             
--------------------------------------------------|--------------------|----|
--17-17-17-17-17-17-17-17-15-15-15-15-15-15-15-15-|--13----------------|----|
--------------------------------------------------|--------------------|----|
--------------------------------------------------|--------------------|----|
--------------------------------------------------|--------------------|----|
--------------------------------------------------|--------------------|----|


                                    
----|----|----|----|----|----|----||
----|----|----|----|----|----|----||
----|----|----|----|----|----|----||
----|----|----|----|----|----|----||
----|----|----|----|----|----|----||
----|----|----|----|----|----|----||


comments
We did not receive enough feedback on this tab! Please rate:
print report bad tab
1 2 3 4 5
I want to post or [tab]
guest
You may want to rate the tab now too:
select rating
Please do not post tabs as comments. Select "correction" instead!