Oops, an error
Loading. Please wait.

The Few And The Fallen Tab

ver1
ver1

Whole song

More versions @911Tabs.com
470 views 1 this week
no commentswrite comment
1 2 3 4 5
excellent!
x 1
Autoscroll
+/-
esc
set tempo
stop
Contributor
Difficulty
Tuning
advanced
C G C F A D
WARNING: You are trying to view
                                    content from Ultimate-Guitar.com
                                    in an unauthorized application,
                                    which is prohibited.

                                    Please use an official Ultimate
                                    Guitar Tabs application for iPhone,
                                    iPad or Android to access legitimate
                                    chords, guitar, bass, and drum tabs
                                    from Ultimate-Guitar.com database.

                                    Type "ultimate guitar tabs" in Apple
                                    App Store's or Android Market's
                                    search to find the application.
joe's guitar line

    guitar 1                                                       
D||------|------|------|------|------|----|----|----|----|
A||------|------|------|------|------|----|----|----|----|
F||------|------|------|------|------|----|----|----|----|
C||------|------|------|------|------|----|----|----|----|
G||------|------|------|------|------|----|----|----|----|
C||------|------|------|------|------|----|----|----|----|


                                                      
--------------------------|--------------------------|
--------------------------|--------------------------|
--------------6-----------|--4-----------------------|
--4--7--6--4-----7--6--4--|-----7--6--4--7--6--------|
--------------------------|--------------------7--4--|
--------------------------|--------------------------|


                                                       
--------------------------|---------------------------|
--------------------------|---------------------------|
--------------------------|--6--4--4--6--6-7-6--4--2--|
--4--7--6-----------6--7--|---------------------------|
-----------7--4--7--------|---------------------------|
--------------------------|---------------------------|


                                                      
--------------------------|--------------------------|
--------------------------|--------------------------|
--------------6-----------|--4-----------------------|
--4--7--6--4-----7--6--4--|-----7--6--4--7--6--------|
--------------------------|--------------------7--4--|
--------------------------|--------------------------|


                                                      
--------------------------|--------------------------|
--------------------------|--------------------------|
--------------------------|--------------------------|
--4--7--6-----------6--7--|--7--6--4--6--7-6-4--6----|
-----------7--4--7--------|--------------------------|
--------------------------|--------------------------|


                                                      
--------------------------|--------------------------|
--------------------------|--------------------------|
--------------6-----------|--4-----------------------|
--4--7--6--4-----7--6--4--|-----7--6--4--7--6--------|
--------------------------|--------------------7--4--|
--------------------------|--------------------------|


                                                       
--------------------------|---------------------------|
--------------------------|---------------------------|
--------------------------|--6--4--4--6--6-7-6--4--2--|
--4--7--6-----------6--7--|---------------------------|
-----------7--4--7--------|---------------------------|
--------------------------|---------------------------|


                                                      
--------------------------|--------------------------|
--------------------------|--------------------------|
--------------6-----------|--4-----------------------|
--4--7--6--4-----7--6--4--|-----7--6--4--7--6--------|
--------------------------|--------------------7--4--|
--------------------------|--------------------------|


                                                                             
--------------------------|----------------------|--------------------------|
--------------------------|----------------------|--------------------------|
--------------------------|--6--4----6--6--------|--------------------6-----|
--4--7--6-----------6--7--|----------------------|--6--------7--------------|
-----------7--4--7--------|----------------------|-----0--0-----0--0-----0--|
--------------------------|----------------------|-----0--0-----0--0-----0--|


                                                       
---------------------------|--------------------------|
---------------------------|--------------------------|
---------------------------|--------------------6-----|
--9-----6-----7-9-7--6--4--|--6--------7--------------|
-----0-----0---------------|-----0--0-----0--0-----0--|
-----0-----0---------------|-----0--0-----0--0-----0--|


                                                       
----------------------------|-------------------------|
----------------------------|-------------------------|
----------------------------|-------------------------|
--9-----6-----9-11-9--7--6--|--4--------4-------4--6--|
-----0-----0----------------|--4--0--0--4----4--------|
-----0-----0----------------|--4--0--0--4----4--------|


                                                                                
--------------------------|-------------------------|--------------------------|
--------------------------|-------------------------|--------------------------|
-----9--7--6--------------|-------------------------|-----9--7--6--7--6--4--2--|
--7-----------7--6--2-----|--4--------4-------4--6--|--7-----------------------|
-----------------------4--|--4--0--0--4----4--------|--------------------------|
--------------------------|--4--0--0--4----4--------|--------------------------|


                                                       
--------------------------|---------------------------|
--------------------------|---------------------------|
--------------------6-----|---------------------------|
--6--------7--------------|--9-----6-----7-9-7--6--4--|
-----0--0-----0--0-----0--|-----0-----0---------------|
-----0--0-----0--0-----0--|-----0-----0---------------|


                                                        
--------------------------|----------------------------|
--------------------------|----------------------------|
--------------------6-----|----------------------------|
--6--------7--------------|--9-----6-----9-11-9--7--6--|
-----0--0-----0--0-----0--|-----0-----0----------------|
-----0--0-----0--0-----0--|-----0-----0----------------|


                                                                               
-------------------------|--------------------------|-------------------------|
-------------------------|--------------------------|-------------------------|
-------------------------|-----9--7--6--------------|-------------------------|
--4--------4-------4--6--|--7-----------7--6--2--0--|--4--------4-------4--6--|
--4--0--0--4----4--------|--------------------------|--4--0--0--4----4--------|
--4--0--0--4----4--------|--------------------------|--4--0--0--4----4--------|


                                                      
--------------------------|--------------------------|
--------------------------|--------------------5-----|
-----9--7--6--7--6--4--2--|--4--------6--------------|
--7-----------------------|--------------------------|
--------------------------|-----0--0-----0--0-----0--|
--------------------------|-----0--0-----0--0-----0--|


                                                       
---------------------------|--------------------------|
---------------------------|--------------------5-----|
--7-----4-----6-7-6--4--2--|--4--------6--------------|
---------------------------|--------------------------|
-----0-----0---------------|-----0--0-----0--0-----0--|
-----0-----0---------------|-----0--0-----0--0-----0--|


                                                        
---------------------------|---------------------------|
---------------------------|---------------------------|
--7-----4-----7-9-7--6--4--|---------------------------|
---------------------------|--4--------4---------------|
-----0-----0---------------|--4--0--0--4----4-4-4--4-4-|
-----0-----0---------------|--4--0--0--4----4-4-4--4-4-|


                                                          
-----------------------------|---------------------------|
-----------------------------|---------------------------|
-----------------------------|---------------------------|
-----------------------------|--4--------4---------------|
--4--4-4-4--4-4-4--4-4-4--4--|--4--0--0--4----4-4-4--4-4-|
--4--4-4-4--4-4-4--4-4-4--4--|--4--0--0--4----4-4-4--4-4-|


                                                         
-----------------------------|--------------------------|
-----------------------------|--------------------------|
-----------------------------|--------------------------|
-----------------------------|--4--------6--------7-----|
--4--4-4-4--4-4-4--4-4-4--4--|--------------------------|
--4--4-4-4--4-4-4--4-4-4--4--|-----0--0-----0--0-----0--|


                                                      
--------------------------|--------------------------|
--------------------------|--------------------------|
--------------7-----6-----|--------------------------|
--6-----7-----------------|--6--------7--------9-----|
--------------------------|--------------------------|
-----0-----0-----0-----0--|-----0--0-----0--0-----0--|


                                                       
--------------------------|---------------------------|
--------------------------|---------------------------|
--------------9-----7-----|---------------------------|
--7-----9-----------------|--4--------4---------------|
--------------------------|--4--0--0--4----4-4-4--4-4-|
-----0-----0-----0-----0--|--4--0--0--4----4-4-4--4-4-|


                                                          
-----------------------------|---------------------------|
-----------------------------|---------------------------|
-----------------------------|---------------------------|
-----------------------------|--4--------4---------------|
--4--4-4-4--4-4-4--4-4-4--4--|--4--0--0--4----4-4-4--4-4-|
--4--4-4-4--4-4-4--4-4-4--4--|--4--0--0--4----4-4-4--4-4-|


                                                        
-----------------------------|-------------------------|
-----------------------------|-------------------------|
-----------------------------|-------------------------|
-----------------------------|-------------------------|
--4--4-4-4--4-4-4--4-4-4--4--|--0--0--0--0----0--0--0--|
--4--4-4-4--4-4-4--4-4-4--4--|--0--0--0--0----0--0--0--|


                                                                    
-------------------------|----------------------|------------------|
-------------------------|----------------------|------------------|
-------------------------|----------------------|------------------|
-------------------------|----------------------|------------------|
--0--0--0--0----2--2--2--|--4--4----4--4--------|------------------|
--0--0--0--0----2--2--2--|--4--4----4--4--------|------------------|


                                                                      
----------------------|-----------------------|----------------------|
----------------------|-----------------------|----------------------|
----------------------|-----------------------|----------------------|
----------------------|-----------------------|----------------------|
--4--4----4--4--------|--4--4----2--2----2----|--0--0----0--0--------|
--4--4----4--4--------|--4--4----2--2----2----|--0--0----0--0--------|


                                                                    
------------------|------------------------|-----------------------|
------------------|------------------------|-----------------------|
------------------|------------------------|-----------------------|
------------------|------------------------|-----------------------|
------------------|--0--0----0--0----0--0--|----0--0----0----2--2--|
------------------|--0--0----0--0----0--0--|----0--0----0----2--2--|


                                                                 
----------------------|------------------|----------------------|
----------------------|------------------|----------------------|
----------------------|------------------|----------------------|
----------------------|------------------|----------------------|
--4--4----4--4--------|------------------|--4--4----4--4--------|
--4--4----4--4--------|------------------|--4--4----4--4--------|


                                                                  
-----------------------|----------------------|------------------|
-----------------------|----------------------|------------------|
-----------------------|----------------------|------------------|
-----------------------|----------------------|------------------|
--4--4----2--2----2----|--0--0----0--0--------|------------------|
--4--4----2--2----2----|--0--0----0--0--------|------------------|


                                                                           
------------------------|----------------------|--------------------------|
------------------------|----------------------|--------------------------|
------------------------|----------------------|--------------6-----------|
------------------------|-----------------2----|--4--7--6--4-----7--6--4--|
--0--0----0--0----0--0--|----0--0----0----2----|--------------------------|
--0--0----0--0----0--0--|----0--0----0----2----|--------------------------|


                                                      
--------------------------|--------------------------|
--------------------------|--------------------------|
--4-----------------------|--------------------------|
-----7--6--4--7--6--------|--4--7--6-----------6--7--|
--------------------7--4--|-----------7--4--7--------|
--------------------------|--------------------------|


                                                       
---------------------------|--------------------------|
---------------------------|--------------------------|
--6--4--4--6--6-7-6--4--2--|--------------6-----------|
---------------------------|--4--7--6--4-----7--6--4--|
---------------------------|--------------------------|
---------------------------|--------------------------|


                                                      
--------------------------|--------------------------|
--------------------------|--------------------------|
--4-----------------------|--------------------------|
-----7--6--4--7--6--------|--4--7--6-----------6--7--|
--------------------7--4--|-----------7--4--7--------|
--------------------------|--------------------------|


                                                      
--------------------------|--------------------------|
--------------------------|--------------------------|
--------------------------|--------------6-----------|
--7--6--4--6--7-6-4--6----|--4--7--6--4-----7--6--4--|
--------------------------|--------------------------|
--------------------------|--------------------------|


                                                      
--------------------------|--------------------------|
--------------------------|--------------------------|
--4-----------------------|--------------------------|
-----7--6--4--7--6--------|--4--7--6-----------6--7--|
--------------------7--4--|-----------7--4--7--------|
--------------------------|--------------------------|


                                                       
---------------------------|--------------------------|
---------------------------|--------------------------|
--6--4--4--6--6-7-6--4--2--|--------------6-----------|
---------------------------|--4--7--6--4-----7--6--4--|
---------------------------|--------------------------|
---------------------------|--------------------------|


                                                                              
--------------------------|--------------------------|-----------------------|
--------------------------|--------------------------|-----------------------|
--4-----------------------|--------------------------|-----------------------|
-----7--6--4--7--6--------|--4--7--6-----------6--7--|--7--6--4--6--6--------|
--------------------7--4--|-----------7--4--7--------|-----------------------|
--------------------------|--------------------------|-----------------------|


                                                             
-----------------|--------------------|---------------------|
-----------------|--------------------|---------------------|
-----------------|--------------------|---------------------|
-----------------|--------------------|---------------------|
--4-4-4----------|--------------4--4--|--4-4-4--------------|
--4-4-4----------|--------------4--4--|--4-4-4--------------|


                                                                 
-------------------------|-----------------|--------------------|
-------------------------|-----------------|--------------------|
-------------------------|-----------------|--------------------|
--------------------4----|-----------------|--------------------|
--4-4-4------4-4-4--4----|--0-0-0----------|--------------0--0--|
--4-4-4------4-4-4--4----|--0-0-0----------|--------------0--0--|


                                                                  
---------------------|-------------------------|-----------------|
---------------------|-------------------------|-----------------|
---------------------|-------------------------|-----------------|
---------------------|--------------------0----|-----------------|
--0-0-0--------------|--0-0-0------0-0-0--0----|--4-4-4----------|
--0-0-0--------------|--0-0-0------0-0-0--0----|--4-4-4----------|


                                                                     
--------------------|---------------------|-------------------------|
--------------------|---------------------|-------------------------|
--------------------|---------------------|-------------------------|
--------------------|---------------------|--------------------4----|
--------------4--4--|--4-4-4--------------|--4-4-4------4-4-4--4----|
--------------4--4--|--4-4-4--------------|--4-4-4------4-4-4--4----|


                                                             
-----------------|--------------------|---------------------|
-----------------|--------------------|---------------------|
-----------------|--------------------|---------------------|
-----------------|--------------------|---------------------|
--0-0-0----------|--------------0--0--|--0-0-0--------------|
--0-0-0----------|--------------0--0--|--0-0-0--------------|


                                                                 
-------------------------|-----------------|--------------------|
-------------------------|-----------------|--------------------|
-------------------------|-----------------|--------------------|
--------------------0----|-----------------|--------------------|
--0-0-0------0-0-0--0----|--4-4-4----------|--------------4--4--|
--0-0-0------0-0-0--0----|--4-4-4----------|--------------4--4--|


                                                                  
---------------------|-------------------------|-----------------|
---------------------|-------------------------|-----------------|
---------------------|-------------------------|-----------------|
---------------------|--------------------4----|-----------------|
--4-4-4--------------|--4-4-4------4-4-4--4----|--0-0-0----------|
--4-4-4--------------|--4-4-4------4-4-4--4----|--0-0-0----------|


                                                                     
--------------------|---------------------|-------------------------|
--------------------|---------------------|-------------------------|
--------------------|---------------------|-------------------------|
--------------------|---------------------|--------------------0----|
--------------0--0--|--0-0-0--------------|--0-0-0------0-0-0--0----|
--------------0--0--|--0-0-0--------------|--0-0-0------0-0-0--0----|


                                                      
--------------------------|--------------------------|
--------------------------|--------------------------|
--------------------------|--------------------------|
--4-----------------------|--------------------------|
--4--4--4--4--4--4--4--4--|--4--4--4--4--4--4--4--4--|
--4--4--4--4--4--4--4--4--|--4--4--4--4--4--4--4--4--|


                                                      
--------------------------|--------------------------|
--------------------------|--------------------------|
--------------------------|--------------------------|
--------------------------|--6-----4-----7-----11----|
--4--4--4--4--4--4--4--4--|-----4-----4-----4--------|
--4--4--4--4--4--4--4--4--|-----4-----4-----4--------|


                                                      
--------------------------|--------------------------|
--------------------------|--------------------------|
--------------------------|--------------------------|
--4-----------------------|--------------------------|
--4--4--4--4--4--4--4--4--|--4--4--4--4--4--4--4--4--|
--4--4--4--4--4--4--4--4--|--4--4--4--4--4--4--4--4--|


                                                                            
--------------------------|---------------------|--------------------------|
--------------------------|---------------------|--------------------------|
--------------------------|---------------------|--------------------------|
--4-----------------------|--6----4----7--------|--4-----------------------|
--4--4--4--4--4--4--4--4--|---------------------|--4--4--4--4--4--4--4--4--|
--4--4--4--4--4--4--4--4--|---------------------|--4--4--4--4--4--4--4--4--|


                                                      
--------------------------|--------------------------|
--------------------------|--------------------------|
--------------------------|--------------------------|
--------------------------|--4-----------------------|
--4--4--4--4--4--4--4--4--|--4--4--4--4--4--4--4--4--|
--4--4--4--4--4--4--4--4--|--4--4--4--4--4--4--4--4--|


                                                      
--------------------------|--------------------------|
--------------------------|--------------------------|
--------------------------|--------------------------|
--6-----4-----7-----11----|--4-----------------------|
--------------------------|--4--4--4--4--4--4--4--4--|
-----4-----4-----4--------|--4--4--4--4--4--4--4--4--|


                                                                            
--------------------------|--------------------------|---------------------|
--------------------------|--------------------------|---------------------|
--------------------------|--------------------------|---------------------|
--------------------------|--4-----------------------|--6----4----7--------|
--4--4--4--4--4--4--4--4--|--4--4--4--4--4--4--4--4--|---------------------|
--4--4--4--4--4--4--4--4--|--4--4--4--4--4--4--4--4--|---------------------|


                                                      
--------------------------|--------------------------|
--------------------------|--------------------------|
--------------------------|--------------------------|
--4-----------------------|--------------------------|
--4--4--4--4--4--4--4--4--|--4--4--4--4--4--4--4--4--|
--4--4--4--4--4--4--4--4--|--4--4--4--4--4--4--4--4--|


                                                      
--------------------------|--------------------------|
--------------------------|--------------------------|
--------------------------|--------------------------|
--4-----------------------|--6-----4-----7-----11----|
--4--4--4--4--4--4--4--4--|--------------------------|
--4--4--4--4--4--4--4--4--|-----4-----4-----4--------|


                                                      
--------------------------|--------------------------|
--------------------------|--------------------------|
--------------------------|--------------------------|
--4-----------------------|--------------------------|
--4--4--4--4--4--4--4--4--|--4--4--4--4--4--4--4--4--|
--4--4--4--4--4--4--4--4--|--4--4--4--4--4--4--4--4--|


                                                                            
--------------------------|---------------------|--------------------------|
--------------------------|---------------------|--------------------------|
--------------------------|---------------------|--------------6-----------|
--4-----------------------|--6----4----7--------|--4--7--6--4-----7--6--4--|
--4--4--4--4--4--4--4--4--|---------------------|--------------------------|
--4--4--4--4--4--4--4--4--|---------------------|--------------------------|


                                                      
--------------------------|--------------------------|
--------------------------|--------------------------|
--4-----------------------|--------------------------|
-----7--6--4--7--6--------|--4--7--6-----------6--7--|
--------------------7--4--|-----------7--4--7--------|
--------------------------|--------------------------|


                                                       
---------------------------|--------------------------|
---------------------------|--------------------------|
--6--4--4--6--6-7-6--4--2--|--------------6-----------|
---------------------------|--4--7--6--4-----7--6--4--|
---------------------------|--------------------------|
---------------------------|--------------------------|


                                                      
--------------------------|--------------------------|
--------------------------|--------------------------|
--4-----------------------|--------------------------|
-----7--6--4--7--6--------|--4--7--6-----------6--7--|
--------------------7--4--|-----------7--4--7--------|
--------------------------|--------------------------|


                                                      
--------------------------|--------------------------|
--------------------------|--------------------------|
--------------------------|--------------6-----------|
--7--6--4--6--7-6-4--6----|--4--7--6--4-----7--6--4--|
--------------------------|--------------------------|
--------------------------|--------------------------|


                                                      
--------------------------|--------------------------|
--------------------------|--------------------------|
--4-----------------------|--------------------------|
-----7--6--4--7--6--------|--4--7--6-----------6--7--|
--------------------7--4--|-----------7--4--7--------|
--------------------------|--------------------------|


                                                       
---------------------------|--------------------------|
---------------------------|--------------------------|
--6--4--4--6--6-7-6--4--2--|--------------6-----------|
---------------------------|--4--7--6--4-----7--6--4--|
---------------------------|--------------------------|
---------------------------|--------------------------|


                                                                              
--------------------------|--------------------------|-----------------------|
--------------------------|--------------------------|-----------------------|
--4-----------------------|--------------------------|-----------------------|
-----7--6--4--7--6--------|--4--7--6-----------6--7--|--7--6--4--6--6--------|
--------------------7--4--|-----------7--4--7--------|-----------------------|
--------------------------|--------------------------|-----------------------|


                                                                                
----|----|----|----|----|----|----|----|----|----|----|----|----|----|----|----|
----|----|----|----|----|----|----|----|----|----|----|----|----|----|----|----|
----|----|----|----|----|----|----|----|----|----|----|----|----|----|----|----|
----|----|----|----|----|----|----|----|----|----|----|----|----|----|----|----|
----|----|----|----|----|----|----|----|----|----|----|----|----|----|----|----|
----|----|----|----|----|----|----|----|----|----|----|----|----|----|----|----|


                                                      
--------------------------|--------------------------|
--------------------------|--------------------------|
--------------------------|--------------------------|
--0--0--0--0--0--0--0--0--|--0--0--0--0--0--0--0--0--|
--0--0--0--0--0--0--0--0--|--0--0--0--0--0--0--0--0--|
--0--0--0--0--0--0--0--0--|--0--0--0--0--0--0--0--0--|


                                                      
--------------------------|--------------------------|
--------------------------|--------------------------|
--------------------------|--------------------------|
--4--4--4--4--4--4--4--4--|--2--2--2--2--2--2--2--2--|
--4--4--4--4--4--4--4--4--|--2--2--2--2--2--2--2--2--|
--4--4--4--4--4--4--4--4--|--2--2--2--2--2--2--2--2--|


                                                      
--------------------------|--------------------------|
--------------------------|--------------------------|
--------------------------|--------------------------|
--0--0--0--0--0--0--0--0--|--0--0--0--0--0--0--0--0--|
--0--0--0--0--0--0--0--0--|--0--0--0--0--0--0--0--0--|
--0--0--0--0--0--0--0--0--|--0--0--0--0--0--0--0--0--|


                                                                           
--------------------------|--------------------------|--------------------|
--------------------------|--------------------------|--10----------------|
--------------------------|--------------------------|--------------------|
--4--4--4--4--4--4--4--4--|--2--2--2--2--2--2--2--2--|--------------------|
--4--4--4--4--4--4--4--4--|--2--2--2--2--2--2--2--2--|--------------------|
--4--4--4--4--4--4--4--4--|--2--2--2--2--2--2--2--2--|--------------------|


                                                                 
--------------------|--------------------|----------------------|
----------14--------|--17----------------|--15------------12----|
--------------------|--------------------|----------------------|
--------------------|--------------------|----------------------|
--------------------|--------------------|----------------------|
--------------------|--------------------|----------------------|


                                                              
--------------------|-------------------|--------------------|
--14----------------|----------9--------|--10----------------|
--------------------|-------------------|--------------------|
--------------------|-------------------|--------------------|
--------------------|-------------------|--------------------|
--------------------|-------------------|--------------------|


                                                                
---------------------|--------------------|--------------------|
--12------------9----|--10----------------|----------14--------|
---------------------|--------------------|--------------------|
---------------------|--------------------|--------------------|
---------------------|--------------------|--------------------|
---------------------|--------------------|--------------------|


                                                                 
--------------------|----------------------|--------------------|
--17----------------|--15------------12----|--14----------------|
--------------------|----------------------|--------------------|
--------------------|----------------------|--------------------|
--------------------|----------------------|--------------------|
--------------------|----------------------|--------------------|


                                                              
-------------------|--------------------|--------------------|
----------9--------|--10----------------|--12----------------|
-------------------|--------------------|--------------------|
-------------------|--------------------|--------------------|
-------------------|--------------------|--------------------|
-------------------|--------------------|--------------------|


                                                   
--5----------------|----|----|----|----|----|----||
-------------------|----|----|----|----|----|----||
-------------------|----|----|----|----|----|----||
-------------------|----|----|----|----|----|----||
-------------------|----|----|----|----|----|----||
-------------------|----|----|----|----|----|----||


comments
We did not receive enough feedback on this tab! Please rate:
print report bad tab
1 2 3 4 5
I want to post or [tab]
guest
You may want to rate the tab now too:
select rating
Please do not post tabs as comments. Select "correction" instead!