Oops, an error
Loading. Please wait.

The Few And The Fallen Tab

ver2
ver2

Whole song

Interactive

More versions @911Tabs.com
200 views 1 this week
no commentswrite comment
1 2 3 4 5
excellent!
x 1
Autoscroll
+/-
esc
set tempo
stop
Contributor
Difficulty
Tuning
advanced
C G C F A D
Hey! There's an official Ultimate Guitar app which is ideal
for learning songs when you're away from computer. Get the app
WARNING: You are trying to view
                                    content from Ultimate-Guitar.com
                                    in an unauthorized application,
                                    which is prohibited.

                                    Please use an official Ultimate
                                    Guitar Tabs application for iPhone,
                                    iPad or Android to access legitimate
                                    chords, guitar, bass, and drum tabs
                                    from Ultimate-Guitar.com database.

                                    Type "ultimate guitar tabs" in Apple
                                    App Store's or Android Market's
                                    search to find the application.
roger's guitar
   
    guitar 2                                                  
D||------|------|------|------|------|----|----|----|
A||------|------|------|------|------|----|----|----|
F||------|------|------|------|------|----|----|----|
C||------|------|------|------|------|----|----|----|
G||------|------|------|------|------|----|----|----|
C||------|------|------|------|------|----|----|----|


                                                                               
--------------------------------------|-------------------|-------------------|
--------------------------------------|-------------------|-------------------|
--------------------------------------|-------------------|-------------------|
--------------------------------------|-------------------|-------------------|
--14-13/12/11/10/9/8/7/6/5/4/3/2/1/0--|--0----------------|----------7--------|
--14/13/12/11/10/9/8/7/6/5/4/3/2/1/0--|--0----------------|----------7--------|


                                                                                
-------------------|-------------------|-------------------|-------------------|
-------------------|-------------------|-------------------|-------------------|
-------------------|-------------------|-------------------|-------------------|
-------------------|-------------------|-------------------|-------------------|
--4----------------|--2----------------|--0----------------|----------7--------|
--4----------------|--2----------------|--0----------------|----------7--------|


                                                                                
-------------------|-------------------|-------------------|-------------------|
-------------------|-------------------|-------------------|-------------------|
-------------------|-------------------|-------------------|-------------------|
-------------------|-------------------|-------------------|-------------------|
--4----------------|--2----------------|--0----------------|----------7--------|
--4----------------|--2----------------|--0----------------|----------7--------|


                                                                                
-------------------|-------------------|-------------------|-------------------|
-------------------|-------------------|-------------------|-------------------|
-------------------|-------------------|-------------------|-------------------|
-------------------|-------------------|-------------------|-------------------|
--4----------------|--2----------------|--0----------------|----------7--------|
--4----------------|--2----------------|--0----------------|----------7--------|


                                                                               
-------------------|-------------------|-------------------|------------------|
-------------------|-------------------|-------------------|------------------|
-------------------|-------------------|-------------------|------------------|
-------------------|-------------------|-------------------|------------------|
--4----------------|--2----------------|--0----------------|------------------|
--4----------------|--2----------------|--0----------------|------------------|


                                                        
--------------------------|----------------------------|
--------------------------|----------------------------|
--------------------6-----|----------------------------|
--6--------7--------------|--9-----6-----9-11-9--7--6--|
-----0--0-----0--0-----0--|-----0-----0----------------|
-----0--0-----0--0-----0--|-----0-----0----------------|


                                                          
---------------------------|-----------------------------|
---------------------------|-----------------------------|
---------------------------|-----------------------------|
--4--------4---------------|-----------------------------|
--4--0--0--4----4-4-4--4-4-|--4--4-4-4--4-4-4--4-4-4--4--|
--4--0--0--4----4-4-4--4-4-|--4--4-4-4--4-4-4--4-4-4--4--|


                                                          
---------------------------|-----------------------------|
---------------------------|-----------------------------|
---------------------------|-----------------------------|
--4--------4---------------|-----------------------------|
--4--0--0--4----4-4-4--4-4-|--4--4-4-4--4-4-4--4-4-4--4--|
--4--0--0--4----4-4-4--4-4-|--4--4-4-4--4-4-4--4-4-4--4--|


                                                       
--------------------------|---------------------------|
--------------------------|---------------------------|
--------------------6-----|---------------------------|
--6--------7--------------|--9-----6-----7-9-7--6--4--|
-----0--0-----0--0-----0--|-----0-----0---------------|
-----0--0-----0--0-----0--|-----0-----0---------------|


                                                        
--------------------------|----------------------------|
--------------------------|----------------------------|
--------------------6-----|----------------------------|
--6--------7--------------|--9-----6-----9-11-9--7--6--|
-----0--0-----0--0-----0--|-----0-----0----------------|
-----0--0-----0--0-----0--|-----0-----0----------------|


                                                          
---------------------------|-----------------------------|
---------------------------|-----------------------------|
---------------------------|-----------------------------|
--4--------4---------------|-----------------------------|
--4--0--0--4----4-4-4--4-4-|--4--4-4-4--4-4-4--4-4-4--4--|
--4--0--0--4----4-4-4--4-4-|--4--4-4-4--4-4-4--4-4-4--4--|


                                                          
---------------------------|-----------------------------|
---------------------------|-----------------------------|
---------------------------|-----------------------------|
--4--------4---------------|-----------------------------|
--4--0--0--4----4-4-4--4-4-|--4--4-4-4--4-4-4--4-4-4--4--|
--4--0--0--4----4-4-4--4-4-|--4--4-4-4--4-4-4--4-4-4--4--|


                                                       
--------------------------|---------------------------|
--------------------------|---------------------------|
--------------------6-----|---------------------------|
--6--------7--------------|--9-----6-----7-9-7--6--4--|
-----0--0-----0--0-----0--|-----0-----0---------------|
-----0--0-----0--0-----0--|-----0-----0---------------|


                                                        
--------------------------|----------------------------|
--------------------------|----------------------------|
--------------------6-----|----------------------------|
--6--------7--------------|--9-----6-----9-11-9--7--6--|
-----0--0-----0--0-----0--|-----0-----0----------------|
-----0--0-----0--0-----0--|-----0-----0----------------|


                                                          
---------------------------|-----------------------------|
---------------------------|-----------------------------|
---------------------------|-----------------------------|
--4--------4---------------|-----------------------------|
--4--0--0--4----4-4-4--4-4-|--4--4-4-4--4-4-4--4-4-4--4--|
--4--0--0--4----4-4-4--4-4-|--4--4-4-4--4-4-4--4-4-4--4--|


                                                          
---------------------------|-----------------------------|
---------------------------|-----------------------------|
---------------------------|-----------------------------|
--4--------4---------------|-----------------------------|
--4--0--0--4----4-4-4--4-4-|--4--4-4-4--4-4-4--4-4-4--4--|
--4--0--0--4----4-4-4--4-4-|--4--4-4-4--4-4-4--4-4-4--4--|


                                                      
--------------------------|--------------------------|
--------------------------|--------------------------|
--------------------------|--------------7-----6-----|
--4--------6--------7-----|--6-----7-----------------|
--------------------------|--------------------------|
-----0--0-----0--0-----0--|-----0-----0-----0-----0--|


                                                      
--------------------------|--------------------------|
--------------------------|--------------------------|
--------------------------|--------------9-----7-----|
--6--------7--------9-----|--7-----9-----------------|
--------------------------|--------------------------|
-----0--0-----0--0-----0--|-----0-----0-----0-----0--|


                                                          
---------------------------|-----------------------------|
---------------------------|-----------------------------|
---------------------------|-----------------------------|
--4--------4---------------|-----------------------------|
--4--0--0--4----4-4-4--4-4-|--4--4-4-4--4-4-4--4-4-4--4--|
--4--0--0--4----4-4-4--4-4-|--4--4-4-4--4-4-4--4-4-4--4--|


                                                          
---------------------------|-----------------------------|
---------------------------|-----------------------------|
---------------------------|-----------------------------|
--4--------4---------------|-----------------------------|
--4--0--0--4----4-4-4--4-4-|--4--4-4-4--4-4-4--4-4-4--4--|
--4--0--0--4----4-4-4--4-4-|--4--4-4-4--4-4-4--4-4-4--4--|


                                                                           
-------------------------|-------------------------|----------------------|
-------------------------|-------------------------|----------------------|
-------------------------|-------------------------|----------------------|
-------------------------|-------------------------|----------------------|
--0--0--0--0----0--0--0--|--0--0--0--0----2--2--2--|--4--4----4--4--------|
--0--0--0--0----0--0--0--|--0--0--0--0----2--2--2--|--4--4----4--4--------|


                                                                  
------------------|----------------------|-----------------------|
------------------|----------------------|-----------------------|
------------------|----------------------|-----------------------|
------------------|----------------------|-----------------------|
------------------|--4--4----4--4--------|--4--4----2--2----2----|
------------------|--4--4----4--4--------|--4--4----2--2----2----|


                                                                   
----------------------|------------------|------------------------|
----------------------|------------------|------------------------|
----------------------|------------------|------------------------|
----------------------|------------------|------------------------|
--0--0----0--0--------|------------------|--0--0----0--0----0--0--|
--0--0----0--0--------|------------------|--0--0----0--0----0--0--|


                                                                  
-----------------------|----------------------|------------------|
-----------------------|----------------------|------------------|
-----------------------|----------------------|------------------|
-----------------------|----------------------|------------------|
----0--0----0----2--2--|--4--4----4--4--------|------------------|
----0--0----0----2--2--|--4--4----4--4--------|------------------|


                                                                      
----------------------|-----------------------|----------------------|
----------------------|-----------------------|----------------------|
----------------------|-----------------------|----------------------|
----------------------|-----------------------|----------------------|
--4--4----4--4--------|--4--4----2--2----2----|--0--0----0--0--------|
--4--4----4--4--------|--4--4----2--2----2----|--0--0----0--0--------|


                                                                   
------------------|------------------------|----------------------|
------------------|------------------------|----------------------|
------------------|------------------------|----------------------|
------------------|------------------------|-----------------2----|
------------------|--0--0----0--0----0--0--|----0--0----0----2----|
------------------|--0--0----0--0----0--0--|----0--0----0----2----|


                                                                                
-------------------|-------------------|-------------------|-------------------|
-------------------|-------------------|-------------------|-------------------|
-------------------|-------------------|-------------------|-------------------|
-------------------|-------------------|-------------------|-------------------|
--0----------------|----------7--------|--4----------------|--2----------------|
--0----------------|----------7--------|--4----------------|--2----------------|


                                                                                
-------------------|-------------------|-------------------|-------------------|
-------------------|-------------------|-------------------|-------------------|
-------------------|-------------------|-------------------|-------------------|
-------------------|-------------------|-------------------|-------------------|
--0----------------|----------7--------|--4----------------|--2----------------|
--0----------------|----------7--------|--4----------------|--2----------------|


                                                                                
-------------------|-------------------|-------------------|-------------------|
-------------------|-------------------|-------------------|-------------------|
-------------------|-------------------|-------------------|-------------------|
-------------------|-------------------|-------------------|-------------------|
--0----------------|----------7--------|--4----------------|--2----------------|
--0----------------|----------7--------|--4----------------|--2----------------|


                                                                                
-------------------|-------------------|-------------------|-------------------|
-------------------|-------------------|-------------------|-------------------|
-------------------|-------------------|-------------------|-------------------|
-------------------|-------------------|-------------------|-------------------|
--0----------------|----------7--------|--4----------------|--2----------------|
--0----------------|----------7--------|--4----------------|--2----------------|


                                                             
-----------------|--------------------|---------------------|
-----------------|--------------------|---------------------|
-----------------|--------------------|---------------------|
-----------------|--------------------|---------------------|
--4-4-4----------|--------------4--4--|--4-4-4--------------|
--4-4-4----------|--------------4--4--|--4-4-4--------------|


                                                                 
-------------------------|-----------------|--------------------|
-------------------------|-----------------|--------------------|
-------------------------|-----------------|--------------------|
--------------------4----|-----------------|--------------------|
--4-4-4------4-4-4--4----|--0-0-0----------|--------------0--0--|
--4-4-4------4-4-4--4----|--0-0-0----------|--------------0--0--|


                                                                  
---------------------|-------------------------|-----------------|
---------------------|-------------------------|-----------------|
---------------------|-------------------------|-----------------|
---------------------|--------------------0----|-----------------|
--0-0-0--------------|--0-0-0------0-0-0--0----|--4-4-4----------|
--0-0-0--------------|--0-0-0------0-0-0--0----|--4-4-4----------|


                                                                     
--------------------|---------------------|-------------------------|
--------------------|---------------------|-------------------------|
--------------------|---------------------|-------------------------|
--------------------|---------------------|--------------------4----|
--------------4--4--|--4-4-4--------------|--4-4-4------4-4-4--4----|
--------------4--4--|--4-4-4--------------|--4-4-4------4-4-4--4----|


                                                             
-----------------|--------------------|---------------------|
-----------------|--------------------|---------------------|
-----------------|--------------------|---------------------|
-----------------|--------------------|---------------------|
--0-0-0----------|--------------0--0--|--0-0-0--------------|
--0-0-0----------|--------------0--0--|--0-0-0--------------|


                                                      
-------------------------|---------------------------|
-------------------------|-----7--10-----7--9--------|
-------------------------|--6---------6--------6--6--|
--------------------0----|---------------------------|
--0-0-0------0-0-0--0----|---------------------------|
--0-0-0------0-0-0--0----|---------------------------|


                                                          
-----------------------------|---------------------------|
--12-----7--10-----7--9--10--|-----7--10-----7--9--------|
------6---------6------------|--6---------6--------6--6--|
-----------------------------|---------------------------|
-----------------------------|---------------------------|
-----------------------------|---------------------------|


                                                                               
-------------------------|--------0--------2--------|--5--------4--------2----|
--9-----7-----5-----7----|-----3--------3--------3--|--------3--------3-------|
-----6-----6-----6-------|--2--------2--------2-----|-----2--------2----------|
-------------------------|--------------------------|-------------------------|
-------------------------|--------------------------|-------------------------|
-------------------------|--------------------------|-------------------------|


                                                                            
--------5--------4--------|--7-----5-----4-----5----|-------|----|----|----|
-----3--------3--------3--|-------------------------|-------|----|----|----|
--2--------2--------2-----|-----2-----2-----2-------|-------|----|----|----|
--------------------------|-------------------------|--4----|----|----|----|
--------------------------|-------------------------|--4----|----|----|----|
--------------------------|-------------------------|--4----|----|----|----|


                                                                             
-------|----|----|----|--------------------------|--------------------------|
-------|----|----|----|--------------------------|--------------------------|
-------|----|----|----|--------------------------|--------------------------|
--4----|----|----|----|--4-----------------------|--------------------------|
--4----|----|----|----|--4--4--4--4--4--4--4--4--|--4--4--4--4--4--4--4--4--|
--4----|----|----|----|--4--4--4--4--4--4--4--4--|--4--4--4--4--4--4--4--4--|


                                                      
--------------------------|--------------------------|
--------------------------|--------------------------|
--------------------------|--------------------------|
--4-----------------------|--------------------------|
--4--4--4--4--4--4--4--4--|--7-----5-----9-----12----|
--4--4--4--4--4--4--4--4--|-----4-----4-----4--------|


                                                      
--------------------------|--------------------------|
--------------------------|--------------------------|
--------------------------|--------------------------|
--4-----------------------|--------------------------|
--4--4--4--4--4--4--4--4--|--4--4--4--4--4--4--4--4--|
--4--4--4--4--4--4--4--4--|--4--4--4--4--4--4--4--4--|


                                                                            
--------------------------|---------------------|--------------------------|
--------------------------|---------------------|--------------------------|
--------------------------|---------------------|--------------------------|
--4-----------------------|---------------------|--4-----------------------|
--4--4--4--4--4--4--4--4--|--7----5----9--------|--4--4--4--4--4--4--4--4--|
--4--4--4--4--4--4--4--4--|---------------------|--4--4--4--4--4--4--4--4--|


                                                      
--------------------------|--------------------------|
--------------------------|--------------------------|
--------------------------|--------------------------|
--------------------------|--4-----------------------|
--4--4--4--4--4--4--4--4--|--4--4--4--4--4--4--4--4--|
--4--4--4--4--4--4--4--4--|--4--4--4--4--4--4--4--4--|


                                                      
--------------------------|--------------------------|
--------------------------|--------------------------|
--------------------------|--------------------------|
--------------------------|--4-----------------------|
--7-----5-----9-----12----|--4--4--4--4--4--4--4--4--|
-----4-----4-----4--------|--4--4--4--4--4--4--4--4--|


                                                                            
--------------------------|--------------------------|---------------------|
--------------------------|--------------------------|---------------------|
--------------------------|--------------------------|---------------------|
--------------------------|--4-----------------------|---------------------|
--4--4--4--4--4--4--4--4--|--4--4--4--4--4--4--4--4--|--7----5----9--------|
--4--4--4--4--4--4--4--4--|--4--4--4--4--4--4--4--4--|---------------------|


                                                                                
-------------------|-------------------|-------------------|-------------------|
-------------------|-------------------|-------------------|-------------------|
-------------------|-------------------|-------------------|-------------------|
-------------------|-------------------|-------------------|-------------------|
--0----------------|----------7--------|--4----------------|--2----------------|
--0----------------|----------7--------|--4----------------|--2----------------|


                                                                                
-------------------|-------------------|-------------------|-------------------|
-------------------|-------------------|-------------------|-------------------|
-------------------|-------------------|-------------------|-------------------|
-------------------|-------------------|-------------------|-------------------|
--0----------------|----------7--------|--4----------------|--2----------------|
--0----------------|----------7--------|--4----------------|--2----------------|


                                                                                
-------------------|-------------------|-------------------|-------------------|
-------------------|-------------------|-------------------|-------------------|
-------------------|-------------------|-------------------|-------------------|
-------------------|-------------------|-------------------|-------------------|
--0----------------|----------7--------|--4----------------|--2----------------|
--0----------------|----------7--------|--4----------------|--2----------------|


                                                                                
-------------------|-------------------|-------------------|-------------------|
-------------------|-------------------|-------------------|-------------------|
-------------------|-------------------|-------------------|-------------------|
-------------------|-------------------|-------------------|-------------------|
--0----------------|----------7--------|--4----------------|--2----------------|
--0----------------|----------7--------|--4----------------|--2----------------|


                                                                            
--9--|----|----|----|----|----|----|----|----|----|----|----|----|----|----|
-----|----|----|----|----|----|----|----|----|----|----|----|----|----|----|
-----|----|----|----|----|----|----|----|----|----|----|----|----|----|----|
-----|----|----|----|----|----|----|----|----|----|----|----|----|----|----|
-----|----|----|----|----|----|----|----|----|----|----|----|----|----|----|
-----|----|----|----|----|----|----|----|----|----|----|----|----|----|----|


                                                           
----|--------------------------|--------------------------|
----|--------------------------|--------------------------|
----|--------------------------|--------------------------|
----|--0--0--0--0--0--0--0--0--|--0--0--0--0--0--0--0--0--|
----|--0--0--0--0--0--0--0--0--|--0--0--0--0--0--0--0--0--|
----|--0--0--0--0--0--0--0--0--|--0--0--0--0--0--0--0--0--|


                                                      
--------------------------|--------------------------|
--------------------------|--------------------------|
--------------------------|--------------------------|
--4--4--4--4--4--4--4--4--|--2--2--2--2--2--2--2--2--|
--4--4--4--4--4--4--4--4--|--2--2--2--2--2--2--2--2--|
--4--4--4--4--4--4--4--4--|--2--2--2--2--2--2--2--2--|


                                                      
--------------------------|--------------------------|
--------------------------|--------------------------|
--------------------------|--------------------------|
--0--0--0--0--0--0--0--0--|--0--0--0--0--0--0--0--0--|
--0--0--0--0--0--0--0--0--|--0--0--0--0--0--0--0--0--|
--0--0--0--0--0--0--0--0--|--0--0--0--0--0--0--0--0--|


                                                                           
--------------------------|--------------------------|--------------------|
--------------------------|--------------------------|--------------------|
--------------------------|--------------------------|--11----------------|
--4--4--4--4--4--4--4--4--|--2--2--2--2--2--2--2--2--|--------------------|
--4--4--4--4--4--4--4--4--|--2--2--2--2--2--2--2--2--|--------------------|
--4--4--4--4--4--4--4--4--|--2--2--2--2--2--2--2--2--|--------------------|


                                                                 
--------------------|--------------------|----------------------|
--------------------|--------------------|----------------------|
----------14--------|--18----------------|--16------------13----|
--------------------|--------------------|----------------------|
--------------------|--------------------|----------------------|
--------------------|--------------------|----------------------|


                                                              
--------------------|-------------------|--------------------|
--------------------|-------------------|--------------------|
--14----------------|----------9--------|--11----------------|
--------------------|-------------------|--------------------|
--------------------|-------------------|--------------------|
--------------------|-------------------|--------------------|


                                                                
---------------------|--------------------|--------------------|
---------------------|--------------------|--------------------|
--13------------9----|--11----------------|----------14--------|
---------------------|--------------------|--------------------|
---------------------|--------------------|--------------------|
---------------------|--------------------|--------------------|


                                                                 
--------------------|----------------------|--------------------|
--------------------|----------------------|--------------------|
--18----------------|--16------------13----|--14----------------|
--------------------|----------------------|--------------------|
--------------------|----------------------|--------------------|
--------------------|----------------------|--------------------|


                                                              
-------------------|--------------------|--------------------|
-------------------|--------------------|--------------------|
----------9--------|--11----------------|--13----------------|
-------------------|--------------------|--------------------|
-------------------|--------------------|--------------------|
-------------------|--------------------|--------------------|


                                                   
-------------------|----|----|----|----|----|----||
--7----------------|----|----|----|----|----|----||
-------------------|----|----|----|----|----|----||
-------------------|----|----|----|----|----|----||
-------------------|----|----|----|----|----|----||
-------------------|----|----|----|----|----|----||


comments
We did not receive enough feedback on this tab! Please rate:
print report bad tab
1 2 3 4 5
I want to post or [tab]
guest
You may want to rate the tab now too:
select rating
Please do not post tabs as comments. Select "correction" instead!