Oops, an error
Loading. Please wait.

Transcend The Throne Tab

45 views 1 this week
no commentswrite comment
1 2 3 4 5
please rate
Autoscroll
+/-
esc
set tempo
stop
Contributor
Difficulty
Tuning
intermediate
C G C F A D
NEW! There's an official Ultimate Guitar app which is ideal
for learning songs when you're away from computer. Get the app
WARNING: You are trying to view
                                    content from Ultimate-Guitar.com
                                    in an unauthorized application,
                                    which is prohibited.

                                    Please use an official Ultimate
                                    Guitar Tabs application for iPhone,
                                    iPad or Android to access legitimate
                                    chords, guitar, bass, and drum tabs
                                    from Ultimate-Guitar.com database.

                                    Type "ultimate guitar tabs" in Apple
                                    App Store's or Android Market's
                                    search to find the application.
rhythm guitar
                                                      
--------------------------|--------------------------|
--------------------------|--------------------------|
--------------------------|--------------------------|
--------------------------|--------------------------|
--5--5--5--5--5--5--5--5--|--8--8--8--8--7--7--7--7--|
--0--0--0--0--0--0--0--0--|--0--0--0--0--0--0--0--0--|


                                                      
--------------------------|--------------------------|
--------------------------|--------------------------|
--------------------------|--------------------------|
--------------------------|--------------------------|
--7--7--7--7--7--7--7--7--|--5--5--5--5--4--4--4--4--|
--8--8--8--8--8--8--8--8--|--7--7--7--7--7--7--7--7--|


                                                      
--------------------------|--------------------------|
--------------------------|--------------------------|
--------------------------|--------------------------|
--------------------------|--------------------------|
--5--5--5--5--5--5--5--5--|--8--8--8--8--7--7--7--7--|
--0--0--0--0--0--0--0--0--|--0--0--0--0--0--0--0--0--|


                                                                             
--------------------------|----------------------|--------------------------|
--------------------------|----------------------|--------------------------|
--------------------------|----------------------|--7--7--7--7--7--7--7--7--|
--------------------------|----------------------|--------------------------|
--7--7--7--7--7--7--7--7--|--5--5------4--4------|--5--5--5--5--5--5--5--5--|
--8--8--8--8--8--8--8--8--|--7--7------7--7------|--0--0--0--0--0--0--0--0--|


                                                      
--------------------------|--------------------------|
--------------------------|--------------------------|
--------------------------|--------------------------|
--8-----5-----7--5--------|--------------------------|
-----5-----5--------8--7--|--8--8--8--8-----7--------|
--------------------------|--8--8--8-----8-----8--8--|


                                                       
---------------------------|--------------------------|
-----------------10--------|--------------------------|
---------------------------|--7--7--7--7--7--7--7--7--|
-----------8---------------|--------------------------|
--5--5--5-----5------5--5--|--5--5--5--5--5--5--5--5--|
--5--5--5-----5------5--5--|--------------------------|


                                                              
----------------------------------|--------------------------|
----------------------------------|--------------------------|
--15------12------14--12----------|--------------------------|
------12------12----------15--14--|--------------------------|
----------------------------------|--8--8--8--8-----7--------|
----------------------------------|--8--8--8-----8-----8--8--|


                                                      
--------------------------|--------------------------|
--------------------------|--------------------------|
--------------------------|--------------------------|
-----------8-----7--------|--------------------------|
--5--5--5-----------------|--5--5--5--5--5--5--5--5--|
--5--5--5-----5-----5--5--|--0--0--0--0--0--0--0--0--|


                                                      
--------------------------|--------------------------|
--------------------------|--------------------------|
--------------------------|--------------------------|
--------------------------|--------------------------|
--8--8--8--8--7--7--7--7--|--7--7--7--7--7--7--7--7--|
--0--0--0--0--0--0--0--0--|--8--8--8--8--8--8--8--8--|


                                                      
--------------------------|--------------------------|
--------------------------|--------------------------|
--------------------------|--------------------------|
--------------------------|--------------------------|
--5--5--5--5--4--4--4--4--|--5--5--5--5--5--5--5--5--|
--7--7--7--7--7--7--7--7--|--0--0--0--0--0--0--0--0--|


                                                                           
--------------------------|--------------------------|--------------------|
--------------------------|--------------------------|--------------------|
--------------------------|--------------------------|--------------------|
--------------------------|--------------------------|--------------------|
--8--8--8--8--7--7--7--7--|--7--7--7--7--7--7--7--7--|--5--------4--------|
--0--0--0--0--0--0--0--0--|--8--8--8--8--8--8--8--8--|--7--------7--------|


                                                       
--------------------------|---------------------------|
--------------------------|---------------------------|
--------------------------|---------------------------|
--------------------------|---------------------------|
--0-0-0--5--0----0--0--0--|--0-0-0--10--0----0--0--0--|
--0-0-0-----0----0--0--0--|--0-0-0------0----0--0--0--|


                                                      
--------------------------|--------------------------|
--------------------------|--------------------------|
--------------------------|--------------------------|
--------------------------|--------------------2--3--|
--0-0-0--8--0----0--0--0--|--0-0-0--3--0----0--------|
--0-0-0-----0----0--0--0--|--0-0-0-----0----0--------|


                                                         
---------------------------|----------------------------|
---------------------------|----------------------------|
---------------------------|----------------------------|
---------------7-----------|----------------8-----------|
--0-0-0--5--0-----0--0--0--|--0-0-0--10--0-----0--0--0--|
--0-0-0-----0-----0--0--0--|--0-0-0------0-----0--0--0--|


                                                                                
---------------------------|------------------------|--------------------------|
---------------------------|------------------------|--------------------------|
---------------------------|--------------7---------|--------------------------|
---------------7-----------|--8--7--5-----7---------|--------------------------|
--0-0-0--8--0-----0--0--0--|-----------8--5----4----|--5--5--5--5--5--5--5--5--|
--0-0-0-----0-----0--0--0--|-------------------7----|--0--0--0--0--0--0--0--0--|


                                                              
--------------------------|----------------------------------|
--------------------------|----------------------------------|
--------------------------|----------------------------------|
--------------------------|--10--10--10--10--10--10--10--10--|
--7--7--7--7--8--8--8--8--|--8---8---8---8---8---8---8---8---|
--0--0--0--0--0--0--0--0--|--8---8---8---8---8---8---8---8---|


                                                      
--------------------------|--------------------------|
--------------------------|--------------------------|
--------------------------|--------------------------|
--8--8--8--8--7--7--7--7--|--------------------------|
--5--5--5--5--3--3--3--3--|--5--5--5--5--5--5--5--5--|
--5--5--5--5--3--3--3--3--|--0--0--0--0--0--0--0--0--|


                                                      
--------------------------|--------------------------|
--------------------------|--------------------------|
--------------------------|--------------------------|
--------------------------|--------------------------|
--7--7--7--7--8--8--8--8--|--5--5--5--5--5--5--5--5--|
--0--0--0--0--0--0--0--0--|--8--8--8--8--8--8--8--8--|


                                                      
--------------------------|--------------------------|
--------------------------|--------------------------|
--------------------------|--------------------------|
--------------------------|--------------------------|
--4--4--4--4--4--4--4--4--|--5--5--5--5--5--5--5--5--|
--7--7--7--7--7--7--7--7--|--0--0--0--0--0--0--0--0--|


                                                              
--------------------------|----------------------------------|
--------------------------|----------------------------------|
--------------------------|----------------------------------|
--------------------------|--10--10--10--10--10--10--10--10--|
--7--7--7--7--8--8--8--8--|--8---8---8---8---8---8---8---8---|
--0--0--0--0--0--0--0--0--|--8---8---8---8---8---8---8---8---|


                                                      
--------------------------|--------------------------|
--------------------------|--------------------------|
--------------------------|--------------------------|
--8--8--8--8--7--7--7--7--|--------------------------|
--5--5--5--5--3--3--3--3--|--5--5--5--5--5--5--5--5--|
--5--5--5--5--3--3--3--3--|--0--0--0--0--0--0--0--0--|


                                                      
--------------------------|--------------------------|
--------------------------|--------------------------|
--------------------------|--------------------------|
--------------------------|--------------------------|
--7--7--7--7--8--8--8--8--|--5--5--5--5--5--5--5--5--|
--0--0--0--0--0--0--0--0--|--8--8--8--8--8--8--8--8--|


                                                                        
--------------------------|-------------------|------------------------|
--------------------------|-------------------|------------------------|
--------------------------|-------------------|------------------------|
--------------------------|-------------------|------------------------|
--4--4--4--4--4--4--4--4--|--5----------------|------5--7--8--7--5--0--|
--7--7--7--7--7--7--7--7--|-------------------|------------------------|


                                                             
-------------------|--------------------|-------------------|
-------------------|--------------------|-------------------|
-------------------|--------------------|-------------------|
-------------------|--------------------|-------------------|
--8----------------|--5--------7--------|--5----------------|
--8----------------|--5--------7--------|-------------------|


                                                                  
------------------------|-------------------|--------------------|
------------------------|-------------------|--------------------|
------------------------|-------------------|--------------------|
------------------------|--8----------------|--5--------1--------|
------5--7--8--7--5--0--|--8----------------|--5--------1--------|
------------------------|--8----------------|--5--------1--------|


                                                      
--------------------------|--------------------------|
--------------------------|--------------------------|
--------------------------|--------------------------|
--------------------------|--------------------------|
--5--5--5--5--5--5--5--5--|--5--5--5--7--8--7--5--0--|
--------------------------|--------------------------|


                                                      
--------------------------|--------------------------|
--------------------------|--------------------------|
--------------------------|--------------------------|
--------------------------|--------------------------|
--8--8--8--8--8--8--8--8--|--5--5--5--5--7--7--7--7--|
--8--8--8--8--8--8--8--8--|--5--5--5--5--7--7--7--7--|


                                                      
--------------------------|--------------------------|
--------------------------|--------------------------|
--------------------------|--------------------------|
--------------------------|--------------------------|
--5--5--5--5--5--5--5--5--|--5--5--5--7--8--7--5--0--|
--------------------------|--------------------------|


                                                      
--------------------------|--------------------------|
--------------------------|--------------------------|
--------------------------|--------------------------|
--------------------------|--------------------------|
--8--8--8--8--8--8--8--8--|--5--5--5--5--1--1--1--1--|
--8--8--8--8--8--8--8--8--|--5--5--5--5--1--1--1--1--|


                                                                                
--------------------------|-------------------------|--------------------------|
--------------------------|-------------------------|--------------------------|
--------------------------|-------------------------|--------------------------|
--0-0-0--0--0----0--0--0--|----0--0----0-0-0-0-0----|--0-0-0--0--0----0--0--0--|
--0-0-0--0--0----0--0--0--|----0--0----0-0-0-0-0----|--0-0-0--0--0----0--0--0--|
--0-0-0--0--0----0--0--0--|----0--0----0-0-0-0-0----|--0-0-0--0--0----0--0--0--|


                                                                           
---------------------|--------------------------|-------------------------|
---------------------|--------------------------|-------------------------|
---------------------|--------------------------|-------------------------|
----0--0----3--------|--0-0-0--0--0----0--0--0--|----0--0----0-0-0-0-0----|
----0--0----3--------|--0-0-0--0--0----0--0--0--|----0--0----0-0-0-0-0----|
----0--0----3--------|--0-0-0--0--0----0--0--0--|----0--0----0-0-0-0-0----|


                                                                             
--------------------------|---------------------|---------------------------|
--------------------------|---------------------|---------------------------|
--------------------------|---------------------|---------------------------|
--0-0-0--0--0----0--0--0--|----0--0----1--------|---------------------------|
--0-0-0--0--0----0--0--0--|----0--0----1--------|--0-0-0-0-0--0----0--0--0--|
--0-0-0--0--0----0--0--0--|----0--0----1--------|--0-0-0-0-0--0----0--0--0--|


                                                                           
-------------------------|--------------------------|---------------------|
-------------------------|--------------------------|---------------------|
-------------------------|--------------------------|---------------------|
-------------------------|--------------------------|------------3--------|
----0--0----0-0-0-0-0----|--0-0-0--0--0----0--0--0--|----0--0----3--------|
----0--0----0-0-0-0-0----|--0-0-0--0--0----0--0--0--|----0--0----3--------|


                                                      
---------------------------|-------------------------|
---------------------------|-------------------------|
---------------------------|-------------------------|
---------------------------|-------------------------|
--0-0-0-0-0--0----0--0--0--|----0--0----0-0-0-0-0----|
--0-0-0-0-0--0----0--0--0--|----0--0----0-0-0-0-0----|


                                                                            
--------------------------|---------------------|--------------------------|
--------------------------|---------------------|--------------------------|
--------------------------|---------------------|--7--7--7--7--7--7--7--7--|
--------------------------|------------1--------|--------------------------|
--0-0-0--0--0----0--0--0--|----0--0----1--------|--5--5--5--5--5--5--5--5--|
--0-0-0--0--0----0--0--0--|----0--0----1--------|--0--0--0--0--0--0--0--0--|


                                                      
--------------------------|--------------------------|
--------------------------|--------------------------|
--------------------------|--------------------------|
--8-----5-----7--5--------|--------------------------|
-----5-----5--------8--7--|--8--8--8--8-----7--------|
--------------------------|--8--8--8-----8-----8--8--|


                                                       
---------------------------|--------------------------|
-----------------10--------|--------------------------|
---------------------------|--7--7--7--7--7--7--7--7--|
-----------8---------------|--------------------------|
--5--5--5-----5------5--5--|--5--5--5--5--5--5--5--5--|
--5--5--5-----5------5--5--|--------------------------|


                                                              
----------------------------------|--------------------------|
----------------------------------|--------------------------|
--15------12------14--12----------|--------------------------|
------12------12----------15--14--|--------------------------|
----------------------------------|--8--8--8--8-----7--------|
----------------------------------|--8--8--8-----8-----8--8--|


                                                      
--------------------------|--------------------------|
--------------------------|--------------------------|
--------------------------|--7--7--7--7--7--7--7--7--|
-----------8-----7--------|--------------------------|
--5--5--5-----------------|--5--5--5--5--5--5--5--5--|
--5--5--5-----5-----5--5--|--0--0--0--0--0--0--0--0--|


                                                      
--------------------------|--------------------------|
--------------------------|--------------------------|
--------------------------|--------------------------|
--8-----5-----7--5--------|--------------------------|
-----5-----5--------8--7--|--8--8--8--8-----7--------|
--------------------------|--8--8--8-----8-----8--8--|


                                                       
---------------------------|--------------------------|
-----------------10--------|--------------------------|
---------------------------|--7--7--7--7--7--7--7--7--|
-----------8---------------|--------------------------|
--5--5--5-----5------5--5--|--5--5--5--5--5--5--5--5--|
--5--5--5-----5------5--5--|--------------------------|


                                                              
----------------------------------|--------------------------|
----------------------------------|--------------------------|
--15------12------14--12----------|--------------------------|
------12------12----------15--14--|--------------------------|
----------------------------------|--8--8--8--8-----7--------|
----------------------------------|--8--8--8-----8-----8--8--|


                                                                               
--------------------------|-------------------|------|----|----|----|----|----|
--------------------------|-------------------|------|----|----|----|----|----|
--------------------------|-------------------|------|----|----|----|----|----|
-----------8-----7--------|--0----------------|------|----|----|----|----|----|
--5--5--5-----------------|--0----------------|------|----|----|----|----|----|
--5--5--5-----5-----5--5--|--0----------------|------|----|----|----|----|----|


                                                                                
----|----|----|----|----|----|----|----|----|----|----|----|----|----|----|----|
----|----|----|----|----|----|----|----|----|----|----|----|----|----|----|----|
----|----|----|----|----|----|----|----|----|----|----|----|----|----|----|----|
----|----|----|----|----|----|----|----|----|----|----|----|----|----|----|----|
----|----|----|----|----|----|----|----|----|----|----|----|----|----|----|----|
----|----|----|----|----|----|----|----|----|----|----|----|----|----|----|----|


                                                           
----|--------------------------|--------------------------|
----|--------------------------|--------------------------|
----|--------------------------|--------------------------|
----|--7--7--7--7--7--7--7--7--|--7--7--7--7--7--7--7--7--|
----|--5--5--5--5--5--5--5--5--|--5--5--5--5--5--5--5--5--|
----|--0--0--0--0--0--0--0--0--|--0--0--0--0--0--0--0--0--|


                                                      
--------------------------|--------------------------|
--------------------------|--------------------------|
--------------------------|--------------------------|
--8--8--8--8--8--8--8--8--|--8--8--8--8--8--8--8--8--|
--5--5--5--5--5--5--5--5--|--5--5--5--5--5--5--5--5--|
--0--0--0--0--0--0--0--0--|--0--0--0--0--0--0--0--0--|


                                                      
--------------------------|--------------------------|
--------------------------|--------------------------|
--------------------------|--------------------------|
--------------------------|--------------------------|
--5--5--5--5--5--5--5--5--|--5--5--5--5--5--5--5--5--|
--8--8--8--8--8--8--8--8--|--8--8--8--8--8--8--8--8--|


                                                      
--------------------------|--------------------------|
--------------------------|--------------------------|
--------------------------|--------------------------|
--------------------------|--------------------------|
--4--4--4--4--4--4--4--4--|--4--4--4--4--4--4--4--4--|
--7--7--7--7--7--7--7--7--|--7--7--7--7--7--7--7--7--|


                                                      
--------------------------|--------------------------|
--------------------------|--------------------------|
--------------------------|--------------------------|
--7--7--7--7--7--7--7--7--|--7--7--7--7--7--7--7--7--|
--5--5--5--5--5--5--5--5--|--5--5--5--5--5--5--5--5--|
--0--0--0--0--0--0--0--0--|--0--0--0--0--0--0--0--0--|


                                                      
--------------------------|--------------------------|
--------------------------|--------------------------|
--------------------------|--------------------------|
--8--8--8--8--8--8--8--8--|--8--8--8--8--8--8--8--8--|
--5--5--5--5--5--5--5--5--|--5--5--5--5--5--5--5--5--|
--0--0--0--0--0--0--0--0--|--0--0--0--0--0--0--0--0--|


                                                      
--------------------------|--------------------------|
--------------------------|--------------------------|
--------------------------|--------------------------|
--------------------------|--------------------------|
--5--5--5--5--5--5--5--5--|--5--5--5--5--5--5--5--5--|
--8--8--8--8--8--8--8--8--|--8--8--8--8--8--8--8--8--|


                                                      
--------------------------|--------------------------|
--------------------------|--------------------------|
--------------------------|--------------------------|
--------------------------|--------------------------|
--4--4--4--4--4--4--4--4--|--4--4--4--4--5--5--5--5--|
--7--7--7--7--7--7--7--7--|--7--7--7--7--7--7--7--7--|


                                                      
--------------------------|--------------------------|
--------------------------|--------------------------|
--------------------------|--------------------------|
--------------------------|--------------------------|
--5--5--5--5--5--5--5--5--|--7--7--7--7--8--8--8--8--|
--0--0--0--0--0--0--0--0--|--0--0--0--0--0--0--0--0--|


                                                              
----------------------------------|--------------------------|
----------------------------------|--------------------------|
----------------------------------|--------------------------|
--10--10--10--10--10--10--10--10--|--8--8--8--8--7--7--7--7--|
--8---8---8---8---8---8---8---8---|--5--5--5--5--3--3--3--3--|
--8---8---8---8---8---8---8---8---|--5--5--5--5--3--3--3--3--|


                                                      
--------------------------|--------------------------|
--------------------------|--------------------------|
--------------------------|--------------------------|
--------------------------|--------------------------|
--5--5--5--5--5--5--5--5--|--7--7--7--7--8--8--8--8--|
--0--0--0--0--0--0--0--0--|--0--0--0--0--0--0--0--0--|


                                                      
--------------------------|--------------------------|
--------------------------|--------------------------|
--------------------------|--------------------------|
--------------------------|--------------------------|
--5--5--5--5--5--5--5--5--|--4--4--4--4--4--4--4--4--|
--8--8--8--8--8--8--8--8--|--7--7--7--7--7--7--7--7--|


                                                      
--------------------------|--------------------------|
--------------------------|--------------------------|
--------------------------|--------------------------|
--------------------------|--------------------------|
--5--5--5--5--5--5--5--5--|--7--7--7--7--8--8--8--8--|
--0--0--0--0--0--0--0--0--|--0--0--0--0--0--0--0--0--|


                                                              
----------------------------------|--------------------------|
----------------------------------|--------------------------|
----------------------------------|--------------------------|
--10--10--10--10--10--10--10--10--|--8--8--8--8--7--7--7--7--|
--8---8---8---8---8---8---8---8---|--5--5--5--5--3--3--3--3--|
--8---8---8---8---8---8---8---8---|--5--5--5--5--3--3--3--3--|


                                                      
--------------------------|--------------------------|
--------------------------|--------------------------|
--------------------------|--------------------------|
--------------------------|--------------------------|
--5--5--5--5--5--5--5--5--|--7--7--7--7--8--8--8--8--|
--0--0--0--0--0--0--0--0--|--0--0--0--0--0--0--0--0--|


                                                      
--------------------------|--------------------------|
--------------------------|--------------------------|
--------------------------|--------------------------|
--------------------------|--------------------------|
--5--5--5--5--5--5--5--5--|--4--4--4--4--4--4--4--4--|
--8--8--8--8--8--8--8--8--|--7--7--7--7--7--7--7--7--|


                                                      
--------------------------|--------------------------|
--------------------------|--------------------------|
--------------------------|--------------------------|
--7--7--7--7--7--7--7--7--|--7--7--7--7--7--7--7--7--|
--5--5--5--5--5--5--5--5--|--5--5--5--5--5--5--5--5--|
--0--0--0--0--0--0--0--0--|--0--0--0--0--0--0--0--0--|


                                                      
--------------------------|--------------------------|
--------------------------|--------------------------|
--------------------------|--------------------------|
--8--8--8--8--8--8--8--8--|--8--8--8--8--8--8--8--8--|
--5--5--5--5--5--5--5--5--|--5--5--5--5--5--5--5--5--|
--0--0--0--0--0--0--0--0--|--0--0--0--0--0--0--0--0--|


                                                      
--------------------------|--------------------------|
--------------------------|--------------------------|
--------------------------|--------------------------|
--------------------------|--------------------------|
--5--5--5--5--5--5--5--5--|--5--5--5--5--5--5--5--5--|
--8--8--8--8--8--8--8--8--|--8--8--8--8--8--8--8--8--|


                                                      
--------------------------|--------------------------|
--------------------------|--------------------------|
--------------------------|--------------------------|
--------------------------|--3--3--3--3--3--3--3--3--|
--4--4--4--4--4--4--4--4--|--4--4--4--4--4--4--4--4--|
--7--7--7--7--7--7--7--7--|--7--7--7--7--7--7--7--7--|


                                                      
--------------------------|--------------------------|
--------------------------|--------------------------|
--------------------------|--------------------------|
--7--7--7--7--7--7--7--7--|--7--7--7--7--7--7--7--7--|
--5--5--5--5--5--5--5--5--|--5--5--5--5--5--5--5--5--|
--0--0--0--0--0--0--0--0--|--0--0--0--0--0--0--0--0--|


                                                      
--------------------------|--------------------------|
--------------------------|--------------------------|
--------------------------|--------------------------|
--8--8--8--8--8--8--8--8--|--8--8--8--8--8--8--8--8--|
--5--5--5--5--5--5--5--5--|--5--5--5--5--5--5--5--5--|
--0--0--0--0--0--0--0--0--|--0--0--0--0--0--0--0--0--|


                                                      
--------------------------|--------------------------|
--------------------------|--------------------------|
--------------------------|--------------------------|
--------------------------|--------------------------|
--5--5--5--5--5--5--5--5--|--5--5--5--5--5--5--5--5--|
--8--8--8--8--8--8--8--8--|--8--8--8--8--8--8--8--8--|


                                                                          
--------------------------|--------------------------|-------------------|
--------------------------|--------------------------|-------------------|
--------------------------|--------------------------|-------------------|
--------------------------|--3--3--3--3--3--3--3--3--|--7----------------|
--4--4--4--4--4--4--4--4--|--4--4--4--4--4--4--4--4--|--5----------------|
--7--7--7--7--7--7--7--7--|--7--7--7--7--7--7--7--7--|--0----------------|



lead guitar 1:

solo

                                                                                
------|------|------|------|------|------|------|------------------------------|
------|------|------|------|------|------|------|--10--10--------10--10--------|
------|------|------|------|------|------|------|----------7--9----------7--9--|
------|------|------|------|------|------|------|------------------------------|
------|------|------|------|------|------|------|------------------------------|
------|------|------|------|------|------|------|------------------------------|


                                                              
------------------------------|------------------------------|
--10--10--------10--10--------|--11--11--------11--11--------|
----------7--9----------7--9--|----------7--9----------7--9--|
------------------------------|------------------------------|
------------------------------|------------------------------|
------------------------------|------------------------------|


                                                              
------------------------------|--10--10--------10--10--------|
--11--11--------11--11--------|----------6--5----------6--5--|
----------7--9----------7--9--|------------------------------|
------------------------------|------------------------------|
------------------------------|------------------------------|
------------------------------|------------------------------|


                                                          
--10--10--------10--10--------|--9--9--------9--9--------|
----------6--5----------6--5--|--------5--3--------5--3--|
------------------------------|--------------------------|
------------------------------|--------------------------|
------------------------------|--------------------------|
------------------------------|--------------------------|


                                                              
--9--9--9--9--10--10--10--10--|------------------------------|
------------------------------|--10--10--------10--10--------|
------------------------------|----------7--9----------7--9--|
------------------------------|------------------------------|
------------------------------|------------------------------|
------------------------------|------------------------------|


                                                              
------------------------------|------------------------------|
--10--10--------10--10--------|--11--11--------11--11--------|
----------7--9----------7--9--|----------7--9----------7--9--|
------------------------------|------------------------------|
------------------------------|------------------------------|
------------------------------|------------------------------|


                                                              
------------------------------|--10--10--------10--10--------|
--11--11--------11--11--------|----------6--5----------6--5--|
----------7--9----------7--9--|------------------------------|
------------------------------|------------------------------|
------------------------------|------------------------------|
------------------------------|------------------------------|


                                                          
--10--10--------10--10--------|--9--9--------9--9--------|
----------6--5----------6--5--|--------5--3--------5--3--|
------------------------------|--------------------------|
------------------------------|--------------------------|
------------------------------|--------------------------|
------------------------------|--------------------------|


                                                                                
--9--9--9--9--10--10--10--10--|------|------|------|------|------|------|----
------------------------------|------|------|------|------|------|------|----
------------------------------|------|------|------|------|------|------|----
------------------------------|------|------|------|------|------|------|----
------------------------------|------|------|------|------|------|------|----
------------------------------|------|------|------|------|------|------|----

end of song
                                                             
-------------------|--------------1--3--|--5----------------|
--6----------------|--------------------|-------------------|
-------------------|--------------------|-------------------|
-------------------|--------------------|-------------------|
-------------------|--------------------|-------------------|
-------------------|--------------------|-------------------|


                                                                
--3------------0----|--0-1---------------|---------------5--3--|
--------------------|--------------------|--3------------------|
--------------------|--------------------|---------------------|
--------------------|--------------------|---------------------|
--------------------|--------------------|---------------------|
--------------------|--------------------|---------------------|


                                                             
--5----------------|--------------------|-------------------|
-------------------|--6------------5----|--6----------------|
-------------------|--------------------|-------------------|
-------------------|--------------------|-------------------|
-------------------|--------------------|-------------------|
-------------------|--------------------|-------------------|


                                                              
--------------1--3--|--5----------------|--3------------0----|
--------------------|-------------------|--------------------|
--------------------|-------------------|--------------------|
--------------------|-------------------|--------------------|
--------------------|-------------------|--------------------|
--------------------|-------------------|--------------------|


                                                               
--0-1---------------|---------------5--3--|--5----------------|
--------------------|--3------------------|-------------------|
--------------------|---------------------|-------------------|
--------------------|---------------------|-------------------|
--------------------|---------------------|-------------------|
--------------------|---------------------|-------------------|


                                                                          
--------------------|-------------------|------------------|------|------|
--6------------5----|--3----------------|------------------|------|------|
--------------------|-------------------|------------------|------|------|
--------------------|-------------------|------------------|------|------|
--------------------|-------------------|------------------|------|------|
--------------------|-------------------|------------------|------|------|

lead 2:
end of song

                                                       
------|------|------|------|------|------|-------------------|
------|------|------|------|------|------|-------------------|
------|------|------|------|------|------|--7----------------|
------|------|------|------|------|------|-------------------|
------|------|------|------|------|------|-------------------|
------|------|------|------|------|------|-------------------|


                                                              
--------------------|-------------------|--------------------|
--------------3--5--|--6----------------|--5------------2----|
--------------------|-------------------|--------------------|
--------------------|-------------------|--------------------|
--------------------|-------------------|--------------------|
--------------------|-------------------|--------------------|


                                                               
--------------------|---------------------|-------------------|
--2h3---------------|---------------6--5--|--6----------------|
--------------------|--3------------------|-------------------|
--------------------|---------------------|-------------------|
--------------------|---------------------|-------------------|
--------------------|---------------------|-------------------|


                                                              
--------------------|-------------------|--------------------|
--------------------|-------------------|--------------3--5--|
--7------------6----|--7----------------|--------------------|
--------------------|-------------------|--------------------|
--------------------|-------------------|--------------------|
--------------------|-------------------|--------------------|


                                                              
-------------------|--------------------|--------------------|
--6----------------|--5------------2----|--2h3---------------|
-------------------|--------------------|--------------------|
-------------------|--------------------|--------------------|
-------------------|--------------------|--------------------|
-------------------|--------------------|--------------------|


                                                               
---------------------|-------------------|--------------------|
---------------6--5--|--6----------------|--------------------|
--3------------------|-------------------|--7------------6----|
---------------------|-------------------|--------------------|
---------------------|-------------------|--------------------|
---------------------|-------------------|--------------------|


                                                                          
--5----------------|------------------|------|------|------|------|------|
-------------------|------------------|------|------|------|------|------|
-------------------|------------------|------|------|------|------|------|
-------------------|------------------|------|------|------|------|------|
-------------------|------------------|------|------|------|------|------|
-------------------|------------------|------|------|------|------|------|

comments
We did not receive enough feedback on this tab! Please rate:
print report bad tab
1 2 3 4 5
I want to post or [tab]
guest
You may want to rate the tab now too:
select rating
Please do not post tabs as comments. Select "correction" instead!