Oops, an error
Loading. Please wait.

En La Ciudad De La Furia Tab

ver1
ver1

Whole song

Interactive

More versions @911Tabs.com
11,746 views 466 this week
no commentswrite comment
1 2 3 4 5
excellent!
x 4
Autoscroll
+/-
esc
set tempo
stop
Contributor
Difficulty
intermediate
WARNING: You are trying to view
                                    content from Ultimate-Guitar.com
                                    in an unauthorized application,
                                    which is prohibited.

                                    Please use an official Ultimate
                                    Guitar Tabs application for iPhone,
                                    iPad or Android to access legitimate
                                    chords, guitar, bass, and drum tabs
                                    from Ultimate-Guitar.com database.

                                    Type "ultimate guitar tabs" in Apple
                                    App Store's or Android Market's
                                    search to find the application.
*-------------------------------------PLEASE NOTE-------------------------------------*
*-This file is the author's own work and represents their interpretation of the song.-*
*-------You may only use this file for private study, scholarship, or research.-------*
*-------------------------------------------------------------------------------------*

Lanzado en Septiembre de 1988, "En La Ciudad De La Furia" es el primer sencillo 
del cuarto álbum de Soda Stereo, "Doble Vida". El tema está considerado dentro
de las 50 mejores canciones del rock argentino según la revista Rolling Stone
y la cadena televisiva MTV. Es una de las partes fundamentales de los conciertos
de Soda Stereo por su ambiente místico y gótico, además de incluir frecuentemente
solos de guitarra extendidos por G. Cerati.


Tab por Pelusteriano
Contactar en mi perfil de UG
Letra por Gustavo Cerati
Composición por Soda Stereo & Daniel Dais (teclado)
Armonizado en Re mayor

Actualización: 2014.06.03: Reajuste a tamaño de ventana, reajuste de acordes y letra
               2014.07.12: Adición de información sobre canción y lista de acordes
===============================================================================
Acordes (de bajo a alto, en order de aparición)
Cadd9 X3203X  G/B X20033  Em7 02203X  G 320033  A X02220  Bm X24432 D X54232  
F#m 244222

 
  INTRO

 Cadd9  G/B
|-----|--3--|---5----5----5----5----5----7----7----7----10---9-|
|--3--|--3--|--8----8----8----8----8----8----8----8----8----8--|
|--0--|--0--|-9----9----9----9----9----9----9----9----9----9---|
|--2--|--0--|--------------------------------------------------|
|--3--|--2--|--------------------------------------------------|
|-----|-----|--------------------------------------------------|


|| -- 5----5----5----5----5- ||  |---7----7----7----10---9-|---10---10---10---10---10-----|
|| --8----8----8----8----8-- ||  |--8----8----8----8----8--|--8----8----8----8----8-------|
||o-9----9----9----9----9---o||  |-9----9----9----9----9---|-9----9----9----9----9--------|
||o-------------------------o||  |-------------------------|------------------------------|
|| ------------------------- ||  |-------------------------|------------------------------|
|| ------------------------- ||X2|-------------------------|--------------------------12\-|

    Em7        G      A       Em7        G      A
|| ----------|--------------|----------|--------------|
|| -------3--|-----3------2-|-------3--|-----3------2-|
||o-------0--|-----0------2-|-------0--|-----0------2-|
||o-----0----|---0------2---|-----0----|---0------2---|
|| ---2------|--------0-----|---2------|--------0-----|
|| -0--------|-3------------|-0--------|-3------------|

  G7M                A      G7M                A
|-------2--|---2-3-2-0----|-------2--|---2-3-2-0----- ||
|-----3----|-3-------2--2-|-----3----|-3-------2--2-- ||
|---0------|------------2-|---0------|------------2--o||
|----------|--------------|----------|---------------o||
|----------|--------------|----------|--------------- ||
|-3--------|--------------|-3--------|--------------- ||X2


  VERSO I (sin guitarra)

Me verás volar

Por la ciudad de la furia

Donde nadie sabe de mí

Y yo soy parte de todo


  VERSO II (entra guitarra)

      Em7        G      A         Em7          G      A
|--------------|---------------|-------------|---------------|
|--------------|------------2--|-------------|------------2--|
|--------------|------------2--|-------------|------------2--|
|----------0---|-----0----2----|---------0---|-----0----2----|
|--------2-----|---2----0------|-------2-----|---2----0------|
|-----0--------|-3-------------|--0----------|-3-------------|

  G                      A       G                            A
|-------------|----------------|------------------|-----------------|
|-------------|--------------2-|------------------|---------------2-|
|---------0---|-(0)----------2-|------------0-----|-(0)-----------2-|
|-----0-------|------------2---|-------0----------|-------------2---|
|---2---------|----------0-----|----2-------------|-----------0-----|
|-3-----------|----------------|-3----------------|-----------------|

        Em7     G      A        Em7  G  A
 Nada cambiará con un aviso de curva
 G            A
 En sus caras veo el temor
 G
 Ya no hay fábulas
 A                  (entra rasgueo de Interludio)
 En la ciudad de la furia


  INTERLUDIO

|| -7-x-7-x-7--77777-x-|-7-x-7-x-7-7--7-x-7-- ||
|| -7-x-7-x-7--77777-x-|-8-x-8-x-8-7--7-x-7-- ||
||o-7-x-7-x-7--77777-x-|-7-x-7-x-7-7--9-x-9--o||
||o-9-x-9-x-9--99999-x-|-9-x-9-x-9-9--9-x-9--o||
|| --------------------|--------------------- ||
|| --------------------|--------------------- ||x4


  PRE-CORO

    Em7
|| ---------------|----------------- ||  || ---------------|------------------- ||
|| ---3----3----3-|---3---3---3---3- ||  || ---3----3----3-|-(3)-3---3---3---3- ||
||o------0----0---|-----0-------2---o||  ||o------0----0---|-------0-------2---o||
||o---------------|-----------------o||  ||o---------------|-------------------o||
|| ---------------|---------0------- ||  || ---------------|-----------0------- ||
|| -0-------------|-3--------------- ||x2|| -0-------------|------------------- ||x2


|| ---------0------|----------------- ||  || ---------2------|------------------- ||
|| ---3---3------3-|---3---3---3---3- ||  || ---3---3------3-|-(3)-3---3---3---3- ||
||o-----0------0---|-----0-------2---o||  ||o-----0------0---|-------0-------2---o||
||o----------------|-----------------o||  ||o----------------|-------------------o||
|| ----------------|---------0------- ||  || ----------------|-----------0------- ||
|| -0--------------|-3--------------- ||x2|| -0--------------|------------------- ||x2

     Em7     G        A        Em7  G  A
Me verás caer como un ave de presa
     G       A        G        A
Me verás caer sobre terrazas desiertas, oh!
      Em7   G        A         Em7  G  A
Te desnudaré por las calles azules
     G                          A       F#m
Me refugiaré antes que todos despierten 

  
  CORO

    Bm                D       G         Bm                D       G
|| -2-2-2-2-2-2-2-2-|-2-2-2-2---------|-2-2-2-2-2-2-2-2-|-2-2-2-2---------|
|| -3-3-3-3-3-3-3-3-|-3-3-3-3-3-3-3-3-|-3-3-3-3-3-3-3-3-|-3-3-3-3-3-3-3-3-|
||o-4-4-4-4-4-4-4-4-|-2-2-2-2-0-0-0-0-|-4-4-4-4-4-4-4-4-|-2-2-2-2-0-0-0-0-|
||o-4-4-4-4-4-4-4-4-|-4-4-4-4-0-0-0-0-|-4-4-4-4-4-4-4-4-|-2-2-2-2-0-0-0-0-|
|| -2-2-2-2-2-2-2-2-|-5-5-5-5-2-2-2-2-|-2-2-2-2-2-2-2-2-|-5-5-5-5-2-2-2-2-|
|| -----------------|---------3-3-3-3-|-----------------|---------3-3-3-3-|
                                                        __________________     ____
                                                       |1.                    |2.
  A                 G                 A                  F#m                   Cadd9       G  
|-0-0-0-0-0-0-0-0-|-----------------|-0-0-0-0-0-0-0-0-||----------------- ||  |----------|-----|
|-2-2-2-2-2-2-2-2-|-3-3-3-3-3-3-3-3-|-2-2-2-2-2-2-2-2-||-2-2-2-2-2-2-2-2- ||  |--3-------|-3---|
|-2-2-2-2-2-2-2-2-|-0-0-0-0-0-0-0-0-|-2-2-2-2-2-2-2-2-||-2-2-2-2-2-2-2-2-o||  |--0-------|-0---|
|-2-2-2-2-2-2-2-2-|-0-0-0-0-0-0-0-0-|-2-2-2-2-2-2-2-2-||-4-4-4-4-4-4-4-4-o||  |--2-------|-0---|
|-0-0-0-0-0-0-0-0-|-2-2-2-2-2-2-2-2-|-0-0-0-0-0-0-0-0-||-4-4-4-4-4-4-4-4- ||  |--3-------|-2---|
|-----------------|-3-3-3-3-3-3-3-3-|-----------------||-2-2-2-2-2-2-2-2- ||x2|----------|-----|

 Bm     D      G        Bm     D
 Me dejarás dormir al amanecer
 G         A        G         A       F#m
 Entre tus piernas, entre tus piernas
 Bm          D    G          Bm      D
 Sabrás ocultarme bien y desaparecer
 G        A       G        A
 Entre la niebla, entre la niebla
 Cadd9      G
 Un hombre alado, extraña la tierra


  INTERLUDIO

|---5----5----5----5----5----7----7----7----7-----|
|--8----8----8----8----8----8----8----8----8------|
|-9----9----9----9----9----9----9----9----9-------|
|-------------------------------------------------|
|-------------------------------------------------|
|---------------------------------------------12\-|


  VERSOS III & IV

      Em7          G      A         Em7          G      A
|| --------------|---------------|-------------|---------------|
|| --------------|------------2--|-------------|------------2--|
||o--------------|------------2--|-------------|------------2--|
||o----------0---|-----0----2----|---------0---|-----0----2----|
|| --------2-----|---2----0------|-------2-----|---2----0------|
|| -----0--------|-3-------------|--0----------|-3-------------|

  G                      A       G                            A
|-------------|----------------|------------------|----------------- ||
|-------------|--------------2-|------------------|---------------2- ||
|---------0---|-(0)----------2-|------------0-----|-(0)-----------2-o||
|-----0-------|------------2---|-------0----------|-------------2---o||
|---2---------|----------0-----|----2-------------|-----------0----- ||
|-3-----------|----------------|-3----------------|----------------- ||x2

    Em7    G    A                     Em7 G A
 Me verás volar por la ciudad de la furia
 G           A
 Donde nadie sabe de mi
 G           A
 Y yo no soy parte de todo

        Em7          G      A         Em7 G A
 Con la luz del sol, se derriten mis alas
 G            A
 En sus caras veo el temor
 G                 A
 Ya no hay fábulas

 En la ciudad de la furia


  INTERLUDIO

|| -7-x-7-x-7--77777-x-|-7-x-7-x-7-7--7-x-7-- ||
|| -7-x-7-x-7--77777-x-|-8-x-8-x-8-7--7-x-7-- ||
||o-7-x-7-x-7--77777-x-|-7-x-7-x-7-7--9-x-9--o||
||o-9-x-9-x-9--99999-x-|-9-x-9-x-9-9--9-x-9--o||
|| --------------------|--------------------- ||
|| --------------------|--------------------- ||x4


  PRE-CORO

    Em7
|| ---------------|----------------- ||  || ---------------|------------------- ||
|| ---3----3----3-|---3---3---3---3- ||  || ---3----3----3-|-(3)-3---3---3---3- ||
||o------0----0---|-----0-------2---o||  ||o------0----0---|-------0-------2---o||
||o---------------|-----------------o||  ||o---------------|-------------------o||
|| ---------------|---------0------- ||  || ---------------|-----------0------- ||
|| -0-------------|-3--------------- ||x2|| -0-------------|------------------- ||x2


|| ---------0------|----------------- ||  || ---------2------|------------------- ||
|| ---3---3------3-|---3---3---3---3- ||  || ---3---3------3-|-(3)-3---3---3---3- ||
||o-----0------0---|-----0-------2---o||  ||o-----0------0---|-------0-------2---o||
||o----------------|-----------------o||  ||o----------------|-------------------o||
|| ----------------|---------0------- ||  || ----------------|-----------0------- ||
|| -0--------------|-3--------------- ||x2|| -0--------------|------------------- ||x2

     Em7     G         A         Em7  G  A
Me verás caer como una flecha salvaje
     G       A      G        A
Me verás caer entre vuelos fugaces, oh!
       Em7       G A         Em7  G  A
Buenos Aires se ve tan susceptible
G              A       G                       A     F#m
Ese destino de furia es lo que en sus caras persiste


  CORO

    Bm                D       G         Bm                D       G
|| -2-2-2-2-2-2-2-2-|-2-2-2-2---------|-2-2-2-2-2-2-2-2-|-2-2-2-2---------|
|| -3-3-3-3-3-3-3-3-|-3-3-3-3-3-3-3-3-|-3-3-3-3-3-3-3-3-|-3-3-3-3-3-3-3-3-|
||o-4-4-4-4-4-4-4-4-|-2-2-2-2-0-0-0-0-|-4-4-4-4-4-4-4-4-|-2-2-2-2-0-0-0-0-|
||o-4-4-4-4-4-4-4-4-|-4-4-4-4-0-0-0-0-|-4-4-4-4-4-4-4-4-|-2-2-2-2-0-0-0-0-|
|| -2-2-2-2-2-2-2-2-|-5-5-5-5-2-2-2-2-|-2-2-2-2-2-2-2-2-|-5-5-5-5-2-2-2-2-|
|| -----------------|---------3-3-3-3-|-----------------|---------3-3-3-3-|
                                                       __________________     ____
                                                      |1.                    |2.
  A                 G                 A                  F#m                   Cadd9       G  
|-0-0-0-0-0-0-0-0-|-----------------|-0-0-0-0-0-0-0-0-|----------------- ||  |----------|-----|
|-2-2-2-2-2-2-2-2-|-3-3-3-3-3-3-3-3-|-2-2-2-2-2-2-2-2-|-2-2-2-2-2-2-2-2- ||  |--3-------|-3---|
|-2-2-2-2-2-2-2-2-|-0-0-0-0-0-0-0-0-|-2-2-2-2-2-2-2-2-|-2-2-2-2-2-2-2-2-o||  |--0-------|-0---|
|-2-2-2-2-2-2-2-2-|-0-0-0-0-0-0-0-0-|-2-2-2-2-2-2-2-2-|-4-4-4-4-4-4-4-4-o||  |--2-------|-0---|
|-0-0-0-0-0-0-0-0-|-2-2-2-2-2-2-2-2-|-0-0-0-0-0-0-0-0-|-4-4-4-4-4-4-4-4- ||  |--3-------|-2---|
|-----------------|-3-3-3-3-3-3-3-3-|-----------------|-2-2-2-2-2-2-2-2- ||x2|----------|-----|

 Bm     D      G        Bm     D
 Me dejarás dormir al amanecer
 G         A        G         A       F#m
 Entre tus piernas, entre tus piernas
 Bm          D    G          Bm      D
 Sabrás ocultarme bien y desaparecer
 G        A       G        A
 Entre la niebla, entre la niebla
 Cadd9      G
 Un hombre alado, prefiere la noche


  INTERLUDIO

|| ---5----5----5----5----5----5----5----5----5---5-- ||
|| --8----8----8----8----8----8----8----8----8---8--- ||
||o-9----9----9----9----9----9----9----9----9---9----o||
||o--------------------------------------------------o||
|| -------------------------------------------------- ||
|| -------------------------------------------------- ||x2


  SOLO
 armónico natural
(x) tiempo ligado
/ slide hacia arriba
\ slide hacia abajo
~ vibrato
P.M. palm mute
X nota muerta

se toca entre brazo y pastilla 
|-<24>-(24)~~~~~|~(24)~~----------|-12-(12)~~~~|~(12)~~~~~|
|-<24>-(24)~~~~~|~(24)~~------2/--|-12-(12)~~~~|~(12)~~~~~|
|---------------|-------------2/--|------------|----------|
|---------------|-------------2/--|------------|----------|
|---------------|-----------------|------------|----------|
|---------------|--------12\------|------------|----------|

                                                    P.M.
|------------|-14-15-14----------------|-----------|------|-<12>-(12)~~|
|------------|----------15-------------|-----------|------|-<12>-(12)~~|
|-<5>-(5)~~~~|-------------14-12-11-12-|-14b16~~~~~|-0~~~~|------------|
|-<5>-(5)~~~~|-------------------------|-----------|-0~~~~|------------|
|------------|-------------------------|-----------|-0~~~~|------------|
|------------|-------------------------|-----------|-0~~~~|------------|


|~(12)--12X12----------|-----------|--------|-<24>-(24)~~~~|
|~(12)--12X12----------|-----------|--------|-<24>-(24)~~~~|
|--------------X-X-X-X-|-<5>-(5)~~~|~(5)~~~~|--------------|
|--------------X-X-X-X-|-<5>-(5)~~~|~(5)~~~~|--------------|
|----------------------|-----------|--------|--------------|
|----------------------|-----------|--------|--------------|


|~(24)~~--------|-12~~~~~|~(12)~~-12\-----17-|------------------|
|~(24)~~----2/--|-12~~~~~|~(12)~~-12\--2/----|-17---17----17----|
|-----------2/--|--------|-------------2/----|---16----16----16-|
|-----------2/--|--------|-------------2/----|------------------|
|---------------|--------|-------------------|------------------|
|-------12\-----|--------|-------------------|------------------|


|-------------------|----------------------|-------------------|
|-15--15--14--10/12-|/17-----17------17----|-15--15--14--10/12-|
|---16--------------|----16------16-----16-|---16--------------|
|-------------------|----------------------|-------------------|
|-------------------|----------------------|-------------------|
|-------------------|----------------------|-------------------|


|-14---14---14--|-14/17--17--17\14-|-(14)-14---14-|-10-7---------|
|-12---12---12--|-12/15--15--15\12-|-(12)-12---12-|-----10-7-----|
|---------------|------------------|--------------|---------9-7--|
|---------------|------------------|--------------|------------9-|
|---------------|------------------|--------------|--------------|
|---------------|------------------|--------------|--------------|

                       fade (disminuye el volumen de grabación)
|----------------|----|----------------|----|-----------------|----|
|-10~~--8~~~--7--|----|-10~~--8~~~--7--|----|--10~~--8~~~--7--|----|
|----------------|-7--|----------------|-9--|-----------------|-7--|
|----------------|----|----------------|----|-----------------|----|
|----------------|----|----------------|----|-----------------|----|
|----------------|----|---------------------|-----------------|----|


|-------------------|
|-15--14-----22~~~~~|
|--------14/--------|
|-------------------|
|-------------------|
|-------------------|
comments
print report bad tab
I want to post or [tab]
guest
You may want to rate the tab now too:
select rating
Please do not post tabs as comments. Select "correction" instead!