Oops, an error
Loading. Please wait.

Distance Tab

ver1
ver1

Whole song

Interactive

More versions @911Tabs.com
8,726 views 6 this week
2 commentsread comments
1 2 3 4 5
excellent!
x 6
add to favorites launch autoscroll
font size
0
reset
Autoscroll
+/-
esc
set tempo
stop
WARNING: You are trying to view
                                    content from Ultimate-Guitar.com
                                    in an unauthorized application,
                                    which is prohibited.

                                    Please use an official Ultimate
                                    Guitar Tabs application for iPhone,
                                    iPad or Android to access legitimate
                                    chords, guitar, bass, and drum tabs
                                    from Ultimate-Guitar.com database.

                                    Type "ultimate guitar tabs" in Apple
                                    App Store's or Android Market's
                                    search to find the application.
Band:  Soilwork
Album: Stabbing the Drama       
Song:  Distance (Track #7)
Copyright (c)  (Nuclear Blast Records) 2005
Version 1.0 - (9/18/05)

Transcribed By: Brian Mikula
Email:          Kingnothing159@yahoo.com


pm  - palm mute           /  - slide up to
\  - slide down to       ~  - vibrato
h  - hammer on           b  - Bend
p  - pull off            Suffixes for bend
t  - tap                 f  - full bend    h - half bend
ph - pinched harmonic    q  - quarter bend t - tap bend
*  - see comment         ^  - Hold bend    r release bend
x  - Stuccatto           ~  - vibrato bend
,  - slight palm mute    () - ghost note, sustained note
"  - tremolo note        <> - Trill

Tuning: Standard B tuning  (B E A D F# b)

Intro

|------------------------------------------------------------|
|------------------------------------------------------------|
|------------------------------------------------------------|
|------------------------------------------------------------|
|-------------------------------------------------15---15----|
|-0---0h13h16-0---0---0h13h16-0---0---0h13h16-0-----------10-|

|----------------------------------------------------------------|
|----------------------------------------------------------------|
|----------------------------------------------------------------|
|----------------------------------------------------------------|
|---------------------------------15---15------------------------|
|-0---0h13h16-0---0---0h13h16-0-----------10---10-10-10-10-10h13-|

|------------------------------------------------------------|
|------------------------------------------------------------|
|------------------------------------------------------------|
|------------------------------------------------------------|
|-------------------------------------------------15---15----|
|-0---0h13h16-0---0---0h13h16-0---0---0h13h16-0-----------10-|

|----------------------------------------------------------------|
|----------------------------------------------------------------|
|----------------------------------------------------------------|
|----------------------------------------------------------------|
|---------------------------------15---15------------------------|
|-0---0h13h16-0---0---0h13h16-0-----------10---10-10-10-10-10h13-|

Verse 1
          Can you please...                 fuck I've been...
|-----------------------------------------------------------------|
|-----------------------------------------------------------------|
|-----------------------------------------------------5---5/7-----|
|-----------------------------------------------------------------|
|-----------------------------------------------------3---3/5-----|
|-0-------0h1h4-0---------0h1h4-0---------0h1h4-0-----------------|
|                                                                 |
|-----------------------------------------------------------------|
|-----------------------------------------------------------------|
|-----------------------------------------------------------------|
|-6-6-6-6-6-6-6-6-6-6-6-6-6-6-6-6-6-6-6-6-6-6-6-6-6-6-6-6-7-7-7-7-|
|-----------------------------------------------------------------|
|-----------------------------------------------------------------|

    Cause I...
|-----------------------------------------------------------------|
|-----------------------------------------------------------------|
|-------------------------------------5---5---X-X-7---7---7\5-----|
|-----------------------------------------------------------------|
|-------------------------------------3---3---X-X-5---5---5\3-----|
|-0-------0h1h4-0---------0h1h4-0---------------------------------|
|                                                                 |
|-----------------------------------------------------------------|
|-----------------------------------------------------------------|
|-----------------------------------------------------------------|
|-6-6-6-6-6-6-6-6-6-6-6-6-6-6-6-6-6-6-6-6-6-6-6-6-6-6-6-6-7-7-7-7-|
|-----------------------------------------------------------------|
|-----------------------------------------------------------------|

          From a...
|-----------------------------------------------------------------|
|-----------------------------------------------------------------|
|-----------------------------------------------------5---5/7-----|
|-----------------------------------------------------------------|
|-----------------------------------------------------3---3/5-----|
|-0-------0h1h4-0---------0h1h4-0---------0h1h4-0-----------------|
|                                                                 |
|-----------------------------------------------------------------|
|-----------------------------------------------------------------|
|-----------------------------------------------------------------|
|-6-6-6-6-6-6-6-6-6-6-6-6-6-6-6-6-6-6-6-6-6-6-6-6-6-6-6-6-7-7-7-7-|
|-----------------------------------------------------------------|
|-----------------------------------------------------------------|

          of emotions...
|-----------------------------------------------------------------|
|-----------------------------------------------------------------|
|-------------------------------------5---5---X-X-7---7---7\5-----|
|-----------------------------------------------------------------|
|-------------------------------------3---3---X-X-5---5---5\3-----|
|-0-------0h1h4-0---------0h1h4-0---------------------------------|
|                                                                 |
|-----------------------------------------------------------------|
|-----------------------------------------------------------------|
|-----------------------------------------------------------------|
|-6-6-6-6-6-6-6-6-6-6-6-6-6-6-6-6-6-6-6-6-6-6-6-6-6-6-6-6-7-7-7-7-|
|-----------------------------------------------------------------|
|-----------------------------------------------------------------|

|-----------------------------------------------------------------------|
|-----------------------------------------------------------------------|
|-----------------------------------------------------------------------|
|-----------------------------------------------------------------------|
|-----------------------------------------------------------------------|
|-----------------------------------------------------------------------|
|         am   I   really...                                              |
|-----------------------------------------------------------------------|
|-----------------------------------------------------------------------|
|-----------------------------------------------------------------------|
|-7-7-7-7-10p7-7-7-7-7-10p7-7-7-10p7-7-7-7-7-10p7-7-7-7-7-10p7-7-7-10p7-|
|-----------------------------------------------------------------------|
|-----------------------------------------------------------------------|

Chorus
      Is that your...
|-----------------------------------------------------------------|
|-----------------------------------------------------------------|
|-2-2-2-2-2-2-2-2-2-2-2-2-2-2-2-2-------------------------5-5-7-7-|
|-2-2-2-2-2-2-2-2-2-2-2-2-2-2-2-2-3-3-3-3-3-3-3-3-3-3-3-3-5-5-7-7-|
|-0-0-0-0-0-0-0-0-0-0-0-0-0-0-0-0-3-3-3-3-3-3-3-3-3-3-3-3-3-3-5-5-|
|---------------------------------1-1-1-1-1-1-1-1-1-1-1-1---------|

      To blow your...                                           From...
|-----------------------------------------------------------------|
|-----------------------------------------------------------------|
|-2-2-2-2-2-2-2-2-2-2-2-2-2-2-2-2---------------------------------|
|-2-2-2-2-2-2-2-2-2-2-2-2-2-2-2-2-3-3-3-3-3-3-3-3-5~--------------|
|-0-0-0-0-0-0-0-0-0-0-0-0-0-0-0-0-3-3-3-3-3-3-3-3-5~--------------|
|---------------------------------1-1-1-1-1-1-1-1-3~----------12\-|

|------------------------------------------------------------|
|------------------------------------------------------------|
|------------------------------------------------------------|
|------------------------------------------------------------|
|-------------------------------------------------15---15----|
|-0---0h13h16-0---0---0h13h16-0---0---0h13h16-0-----------10-|

|----------------------------------------------------------------|
|----------------------------------------------------------------|
|----------------------------------------------------------------|
|----------------------------------------------------------------|
|---------------------------------15---15------------------------|
|-0---0h13h16-0---0---0h13h16-0-----------10---10-10-10-10-10h13-|

Verse 2
          Building knowledge...
|-----------------------------------------------------------------|
|-----------------------------------------------------------------|
|-----------------------------------------------------5---5/7-----|
|-----------------------------------------------------------------|
|-----------------------------------------------------3---3/5-----|
|-0-------0h1h4-0---------0h1h4-0---------0h1h4-0-----------------|
|                                                                 |
|-----------------------------------------------------------------|
|-----------------------------------------------------------------|
|-----------------------------------------------------------------|
|-6-6-6-6-6-6-6-6-6-6-6-6-6-6-6-6-6-6-6-6-6-6-6-6-6-6-6-6-7-7-7-7-|
|-----------------------------------------------------------------|
|-----------------------------------------------------------------|
     hunt for...
|-----------------------------------------------------------------|
|-----------------------------------------------------------------|
|-------------------------------------5---5---X-X-7---7---7\5-----|
|-----------------------------------------------------------------|
|-------------------------------------3---3---X-X-5---5---5\3-----|
|-0-------0h1h4-0---------0h1h4-0---------------------------------|
|                                                                 |
|-----------------------------------------------------------------|
|-----------------------------------------------------------------|
|-----------------------------------------------------------------|
|-6-6-6-6-6-6-6-6-6-6-6-6-6-6-6-6-6-6-6-6-6-6-6-6-6-6-6-6-7-7-7-7-|
|-----------------------------------------------------------------|
|-----------------------------------------------------------------|
             You'll never...
|-----------------------------------------------------------------|
|-----------------------------------------------------------------|
|-----------------------------------------------------5---5/7-----|
|-----------------------------------------------------------------|
|-----------------------------------------------------3---3/5-----|
|-0-------0h1h4-0---------0h1h4-0---------0h1h4-0-----------------|
|                                                                 |
|-----------------------------------------------------------------|
|-----------------------------------------------------------------|
|-----------------------------------------------------------------|
|-6-6-6-6-6-6-6-6-6-6-6-6-6-6-6-6-6-6-6-6-6-6-6-6-6-6-6-6-7-7-7-7-|
|-----------------------------------------------------------------|
|-----------------------------------------------------------------|

             You'll get...
|-----------------------------------------------------------------|
|-----------------------------------------------------------------|
|-------------------------------------5---5---X-X-7---7---7\5-----|
|-----------------------------------------------------------------|
|-------------------------------------3---3---X-X-5---5---5\3-----|
|-0-------0h1h4-0---------0h1h4-0---------------------------------|
|                                                                 |
|-----------------------------------------------------------------|
|-----------------------------------------------------------------|
|-----------------------------------------------------------------|
|-6-6-6-6-6-6-6-6-6-6-6-6-6-6-6-6-6-6-6-6-6-6-6-6-6-6-6-6-7-7-7-7-|
|-----------------------------------------------------------------|
|-----------------------------------------------------------------|

|-----------------------------------------------------------------------|
|-----------------------------------------------------------------------|
|-----------------------------------------------------------------------|
|-----------------------------------------------------------------------|
|-----------------------------------------------------------------------|
|-----------------------------------------------------------------------|
|         am   I   really...                                              |
|-----------------------------------------------------------------------|
|-----------------------------------------------------------------------|
|-----------------------------------------------------------------------|
|-7-7-7-7-10p7-7-7-7-7-10p7-7-7-10p7-7-7-7-7-10p7-7-7-7-7-10p7-7-7-10p7-|
|-----------------------------------------------------------------------|
|-----------------------------------------------------------------------|

Chorus
      Is that your...
|-----------------------------------------------------------------|
|-----------------------------------------------------------------|
|-2-2-2-2-2-2-2-2-2-2-2-2-2-2-2-2-------------------------5-5-7-7-|
|-2-2-2-2-2-2-2-2-2-2-2-2-2-2-2-2-3-3-3-3-3-3-3-3-3-3-3-3-5-5-7-7-|
|-0-0-0-0-0-0-0-0-0-0-0-0-0-0-0-0-3-3-3-3-3-3-3-3-3-3-3-3-3-3-5-5-|
|---------------------------------1-1-1-1-1-1-1-1-1-1-1-1---------|

      To blow...
|-----------------------------------------------------------------|
|-----------------------------------------------------------------|
|-2-2-2-2-2-2-2-2-2-2-2-2-2-2-2-2-----------------7-7-7-7-9-9-5-5-|
|-2-2-2-2-2-2-2-2-2-2-2-2-2-2-2-2-3-3-3-3-3-3-3-3-7-7-7-7-9-9-5-5-|
|-0-0-0-0-0-0-0-0-0-0-0-0-0-0-0-0-3-3-3-3-3-3-3-3-5-5-5-5-7-7-3-3-|
|---------------------------------1-1-1-1-1-1-1-1-----------------|
    
      I tell you...
|-----------------------------------------------------------------|
|-----------------------------------------------------------------|
|-2-2-2-2-2-2-2-2-2-2-2-2-2-2-2-2-------------------------5-5-7-7-|
|-2-2-2-2-2-2-2-2-2-2-2-2-2-2-2-2-3-3-3-3-3-3-3-3-3-3-3-3-5-5-7-7-|
|-0-0-0-0-0-0-0-0-0-0-0-0-0-0-0-0-3-3-3-3-3-3-3-3-3-3-3-3-3-3-5-5-|
|---------------------------------1-1-1-1-1-1-1-1-1-1-1-1---------|

|-------------------------------------------------------------------|
|-------------------------------------------------------------------|
|-2-2-2-2-2-2-2-2-2-2-2-2-2-2-2-2-----------------7-7-7-7-9-9-10-10-|
|-2-2-2-2-2-2-2-2-2-2-2-2-2-2-2-2-3-3-3-3-3-3-3-3-7-7-7-7-9-9-10-10-|
|-0-0-0-0-0-0-0-0-0-0-0-0-0-0-0-0-3-3-3-3-3-3-3-3-5-5-5-5-7-7-8--8--|
|---------------------------------1-1-1-1-1-1-1-1-------------------|

Bridge
|-----------------------------------------------------------------------|
|-----------------------------------------------------------------------|
|-10-10-10-9-x-x-x-9-x-x-9-9-9-9-x-x-10-10-10-9-x-x-x-9-x-x-9-9-9-9-x-x-|
|-7--7--7--7-x-x-x-7-x-x-7-7-7-7-x-x-7--7--7--7-x-x-x-7-x-x-7-7-7-7-x-x-|
|-----------------------------------------------------------------------|
|-----------------------------------------------------------------------|

|-------------------------------------------------------------|
|-------------------------------------------------------------|
|-9-9-9-9-x-x-7-7-7-7-x-x-7-7-x-x-9-9-9-9-x-x-5-5-5-5-x-x-5-5-|
|-7-7-7-7-x-x-7-7-7-7-x-x-7-7-x-x-7-7-7-7-x-x-7-7-7-7-x-x-7-7-|
|-------------------------------------------------------------|
|-------------------------------------------------------------|

|-----------------------------------------------------------------------|
|-----------------------------------------------------------------------|
|-10-10-10-9-x-x-x-9-x-x-9-9-9-9-x-x-10-10-10-9-x-x-x-9-x-x-9-9-9-9-x-x-|
|-7--7--7--7-x-x-x-7-x-x-7-7-7-7-x-x-7--7--7--7-x-x-x-7-x-x-7-7-7-7-x-x-|
|-----------------------------------------------------------------------|
|-----------------------------------------------------------------------|
|                                                                       |
|-----------------------------------------------------------------------|
|-----------------------------------------------------------------------|
|-2--2--2--2---2-2-2-----------------2--2--2--2—--2-2-2~----------------|
|-2--2--2--2---2-2-2-----------------2--2--2--2---2-2-2~----------------|
|-0--0--0--0---0-0-0-----------------0--0--0--0---0-0-0~----------------|
|-----------------------------------------------------------------------|

|-------------------------------------------------------------|
|-------------------------------------------------------------|
|-9-9-9-9-x-x-7-7-7-7-x-x-7-7-x-x-9-9-9-9-x-x-5-5-5-5-x-x-5-5-|
|-7-7-7-7-x-x-7-7-7-7-x-x-7-7-x-x-7-7-7-7-x-x-7-7-7-7-x-x-7-7-|
|-------------------------------------------------------------|
|-------------------------------------------------------------|
|                                 pm  ring out palm mute...     |
|-------------------------------------------------------------|
|-------------------------------------------------------------|
|-------------------------------------------------------------|
|-------------------------------------------------------------|
|-4-4-4-4-----4-4-4-4-----4---4-4-3~--------------------------|
|-2-2-2-2-----2-2-2-2-----2---2-2-1~--------------------5/15\-|

|-----------------------------------------------------------------------|
|-----------------------------------------------------------------------|
|-10-10-10-9-x-x-x-9-x-x-9-9-9-9-x-x-10-10-10-9-x-x-x-9-x-x-9-9-9-9-x-x-|
|-7--7--7--7-x-x-x-7-x-x-7-7-7-7-x-x-7--7--7--7-x-x-x-7-x-x-7-7-7-7-x-x-|
|-----------------------------------------------------------------------|
|-----------------------------------------------------------------------|
|            cold and crawling...                                         |
|-----------------------------------------------------------------------|
|-----------------------------------------------------------------------|
|-2--2--2--2---2-2-2-----------------2--2--2--2—--2-2-2~----------------|
|-2--2--2--2---2-2-2-----------------2--2--2--2---2-2-2~----------------|
|-0--0--0--0---0-0-0-----------------0--0--0--0---0-0-0~----------------|
|-----------------------------------------------------------------------|

|-------------------------------------------------------------|
|-------------------------------------------------------------|
|-9-9-9-9-x-x-7-7-7-7-x-x-7-7-x-x-9-9-9-9-x-x-5-5-5-5-x-x-5-5-|
|-7-7-7-7-x-x-7-7-7-7-x-x-7-7-x-x-7-7-7-7-x-x-7-7-7-7-x-x-7-7-|
|-------------------------------------------------------------|
|-------------------------------------------------------------|
|                                                             |
|-------------------------------------------------------------|
|-------------------------------------------------------------|
|-------------------------------------------------------------|
|-------------------------------------------------------------|
|-4-4-4-4-----4-4-4-4-----4---4-4-3~--------------------------|
|-2-2-2-2-----2-2-2-2-----2---2-2-1~--------------------------|

|-----------------------------------------------------------------------|
|-----------------------------------------------------------------------|
|-10-10-10-9-x-x-x-9-x-x-9-9-9-9-x-x-10-10-10-9-x-x-x-9-x-x-9-9-9-9-x-x-|
|-7--7--7--7-x-x-x-7-x-x-7-7-7-7-x-x-7--7--7--7-x-x-x-7-x-x-7-7-7-7-x-x-|
|-----------------------------------------------------------------------|
|-----------------------------------------------------------------------|
|                    Counting days...                                     |
|-----------------------------------------------------------------------|
|-----------------------------------------------------------------------|
|-2--2--2--2---2-2-2-----------------2--2--2--2—--2-2-2~----------------|
|-2--2--2--2---2-2-2-----------------2--2--2--2---2-2-2~----------------|
|-0--0--0--0---0-0-0-----------------0--0--0--0---0-0-0~----------------|
|-----------------------------------------------------------------------|

|-------------------------------------------------------------|
|-------------------------------------------------------------|
|-9-9-9-9-x-x-7-7-7-7-x-x-7-7-x-x-9-9-9-9-x-x-5-5-5-5-x-x-5-5-|
|-7-7-7-7-x-x-7-7-7-7-x-x-7-7-x-x-7-7-7-7-x-x-7-7-7-7-x-x-7-7-|
|-------------------------------------------------------------|
|-------------------------------------------------------------|
|                                                             |
|-------------------------------------------------------------|
|-------------------------------------------------------------|
|-------------------------------------------------------------|
|-------------------------------------------------------------|
|-4-4-4-4-----4-4-4-4-----4---4-4-3~--------------------------|
|-2-2-2-2-----2-2-2-2-----2---2-2-1~--------------------------|

Solo
|------------------------------------------------------------------------12---|
|-12-----13-10---12--13-10---12-13-12-15^17r15^17--13-12-----12h13p12-10---10\|
|-----------------------------------------------------------------------------|
|-----------------------------------------------------------------------------|
|-----------------------------------------------------------------------------|
|-----------------------------------------------------------------------------|

|------------------------------------------------|
|------------------------------------13^15r13^15-|
|------------------------------------------------|
|-/14---15-12---14--15-12---14-15-14-------------|
|------------------------------------------------|
|------------------------------------------------|

|----------------------------------------------|
|-13-12----------------------------------15^17-|
|-------12-------------------------------------|
|----------14-12-------------------------------|
|----------------15-14-12--15--10--12-11-------|
|----------------------------------------------|

       \/ Behind solo \/
|------------------------------------------------------------------|
|------------------------------------------------------------------|
|--2-2-2-2-2-2-2-2-2-2-2-2-2-2-2-2---------------------------------|
|--2-2-2-2-2-2-2-2-2-2-2-2-2-2-2-2-4-4-4-4-4-4-4-4-3-3-3-3-3-3-3-3-|
|--0-0-0-0-0-0-0-0-0-0-0-0-0-0-0-0-4-4-4-4-4-4-4-4-3-3-3-3-3-3-3-3-|
|----------------------------------2-2-2-2-2-2-2-2-1-1-1-1-1-1-1-1-|

|------------------------------------------------------------------|
|------------------------------------------------------------------|
|--2-2-2-2-2-2-2-2-2-2-2-2-2-2-2-2---------------------------------|
|--2-2-2-2-2-2-2-2-2-2-2-2-2-2-2-2-4-4-4-4-4-4-4-4-3-3-3-3-5-5-5-5-|
|--0-0-0-0-0-0-0-0-0-0-0-0-0-0-0-0-4-4-4-4-4-4-4-4-3-3-3-3-5-5-5-5-|
|----------------------------------2-2-2-2-2-2-2-2-1-1-1-1-3-3-3-3-|

intro riff (in underdrive...)
|------------------------------------------------------------|
|------------------------------------------------------------|
|------------------------------------------------------------|
|------------------------------------------------------------|
|-------------------------------------------------15---15----|
|-0---0h13h16-0---0---0h13h16-0---0---0h13h16-0-----------10-|

|----------------------------------------------------------------|
|----------------------------------------------------------------|
|----------------------------------------------------------------|
|----------------------------------------------------------------|
|---------------------------------15---15------------------------|
|-0---0h13h16-0---0---0h13h16-0-----------10---10-10-10-10-10h13-|

       \/ Back to full distortion\/
|------------------------------------------------------------|
|------------------------------------------------------------|
|------------------------------------------------------------|
|------------------------------------------------------------|
|-------------------------------------------------15---15----|
|-0---0h13h16-0---0---0h13h16-0---0---0h13h16-0-----------10-|

|----------------------------------------------------------------|
|----------------------------------------------------------------|
|----------------------------------------------------------------|
|----------------------------------------------------------------|
|---------------------------------15---15------------------------|
|-0---0h13h16-0---0---0h13h16-0-----------10---10-10-10-10-10h13-|

Chorus
      Is that your...
|-----------------------------------------------------------------|
|-----------------------------------------------------------------|
|-2-2-2-2-2-2-2-2-2-2-2-2-2-2-2-2-------------------------5-5-7-7-|
|-2-2-2-2-2-2-2-2-2-2-2-2-2-2-2-2-3-3-3-3-3-3-3-3-3-3-3-3-5-5-7-7-|
|-0-0-0-0-0-0-0-0-0-0-0-0-0-0-0-0-3-3-3-3-3-3-3-3-3-3-3-3-3-3-5-5-|
|---------------------------------1-1-1-1-1-1-1-1-1-1-1-1---------|

      To blow...
|-------------------------------------------------------------------|
|-------------------------------------------------------------------|
|-2-2-2-2-2-2-2-2-2-2-2-2-2-2-2-2-----------------7-7-7-7-9-9-10-10-|
|-2-2-2-2-2-2-2-2-2-2-2-2-2-2-2-2-3-3-3-3-3-3-3-3-7-7-7-7-9-9-10-10-|
|-0-0-0-0-0-0-0-0-0-0-0-0-0-0-0-0-3-3-3-3-3-3-3-3-5-5-5-5-7-7-8--8--|
|---------------------------------1-1-1-1-1-1-1-1-------------------|
    
      I tell you...
|-----------------------------------------------------------------|
|-----------------------------------------------------------------|
|-2-2-2-2-2-2-2-2-2-2-2-2-2-2-2-2-------------------------5-5-7-7-|
|-2-2-2-2-2-2-2-2-2-2-2-2-2-2-2-2-3-3-3-3-3-3-3-3-3-3-3-3-5-5-7-7-|
|-0-0-0-0-0-0-0-0-0-0-0-0-0-0-0-0-3-3-3-3-3-3-3-3-3-3-3-3-3-3-5-5-|
|---------------------------------1-1-1-1-1-1-1-1-1-1-1-1---------|

|-------------------------------------------------------------------|
|-------------------------------------------------------------------|
|-2-2-2-2-2-2-2-2-2-2-2-2-2-2-2-2-----------------7-7-7-7-9-9-10-10-|
|-2-2-2-2-2-2-2-2-2-2-2-2-2-2-2-2-3-3-3-3-3-3-3-3-7-7-7-7-9-9-10-10-|
|-0-0-0-0-0-0-0-0-0-0-0-0-0-0-0-0-3-3-3-3-3-3-3-3-5-5-5-5-7-7-8--8--|
|---------------------------------1-1-1-1-1-1-1-1-------------------|

      Is that your...
|-----------------------------------------------------------------|
|-----------------------------------------------------------------|
|-2-2-2-2-2-2-2-2-2-2-2-2-2-2-2-2-------------------------5-5-7-7-|
|-2-2-2-2-2-2-2-2-2-2-2-2-2-2-2-2-3-3-3-3-3-3-3-3-3-3-3-3-5-5-7-7-|
|-0-0-0-0-0-0-0-0-0-0-0-0-0-0-0-0-3-3-3-3-3-3-3-3-3-3-3-3-3-3-5-5-|
|---------------------------------1-1-1-1-1-1-1-1-1-1-1-1---------|

      To blow...
|-----------------------------------------------------------------|
|-----------------------------------------------------------------|
|-2-2-2-2-2-2-2-2-2-2-2-2-2-2-2-2-----------------7-7-7-7-9-9-5-5-|
|-2-2-2-2-2-2-2-2-2-2-2-2-2-2-2-2-3-3-3-3-3-3-3-3-7-7-7-7-9-9-5-5-|
|-0-0-0-0-0-0-0-0-0-0-0-0-0-0-0-0-3-3-3-3-3-3-3-3-5-5-5-5-7-7-3-3-|
|---------------------------------1-1-1-1-1-1-1-1-----------------|
    
      I tell you...
|-----------------------------------------------------------------|
|-----------------------------------------------------------------|
|-2-2-2-2-2-2-2-2-2-2-2-2-2-2-2-2-------------------------5-5-7-7-|
|-2-2-2-2-2-2-2-2-2-2-2-2-2-2-2-2-3-3-3-3-3-3-3-3-3-3-3-3-5-5-7-7-|
|-0-0-0-0-0-0-0-0-0-0-0-0-0-0-0-0-3-3-3-3-3-3-3-3-3-3-3-3-3-3-5-5-|
|---------------------------------1-1-1-1-1-1-1-1-1-1-1-1---------|

|-------------------------------------------------------------------|
|-------------------------------------------------------------------|
|-2-2-2-2-2-2-2-2-2-2-2-2-2-2-2-2-----------------7-7-7-7-9-9-11-11-|
|-2-2-2-2-2-2-2-2-2-2-2-2-2-2-2-2-3-3-3-3-3-3-3-3-7-7-7-7-9-9-11-11-|
|-0-0-0-0-0-0-0-0-0-0-0-0-0-0-0-0-3-3-3-3-3-3-3-3-5-5-5-5-7-7-9--9--|
|---------------------------------1-1-1-1-1-1-1-1-------------------|

END
comments
print report bad tab
2 comments total.
-1 reply
Padawan wrote on June 1 2006, 02:21 am

isint it just down a fifth? thats not considered standard b tuning

0 reply
soldierkahn wrote on March 7 2008, 03:19 pm

GREAT TAB!!! 5 stars dude. And yes, although Padawan is right, I still consider this to be B Standard tuning same as my 7s BEADGBE, is B stan. Theres only ONE semitone diff, lol.

I want to post or [tab]
guest
You may want to rate the tab now too:
select rating
Please do not post tabs as comments. Select "correction" instead!