Oops, an error
Loading. Please wait.

If Possible Tab

2,143 views 3 this week
no commentswrite comment
1 2 3 4 5
excellent!
x 2
Autoscroll
+/-
esc
set tempo
stop
Contributor
Hey! There's an official Ultimate Guitar app which is ideal
for learning songs when you're away from computer. Get the app
WARNING: You are trying to view
                                    content from Ultimate-Guitar.com
                                    in an unauthorized application,
                                    which is prohibited.

                                    Please use an official Ultimate
                                    Guitar Tabs application for iPhone,
                                    iPad or Android to access legitimate
                                    chords, guitar, bass, and drum tabs
                                    from Ultimate-Guitar.com database.

                                    Type "ultimate guitar tabs" in Apple
                                    App Store's or Android Market's
                                    search to find the application.
SOILWORK -  IF POSSIBLE                                            bullet_trip@yahoo.com

Tuning: B STANDARD  (B E A D G B)


INTRO
|------12------------------------12-----------------------7--------------------7--------------|
|---------------0-------------------------0----------------------0--------------------0-------|
|-14--------14--------------14--------14--------------7-------7------------7-------7----------|
|---------------------------------------------------------------------------------------------|
|---------------------------------------------------------------------------------------------|
|---------------------------------------------------------------------------------------------|


MAIN                     (Background Guitar - Strumming)
|---------------------------------------------------------------------------------------|
|-10------------------------------------------------------------------------------------|
|-------------------------------------------------------------------------------11------|
|-7-------------------------------------------------------------------------------------|
|-------------------------------------------------------------------------------9-------|
|---------------------------------------------------------------------------------------|
|
|
|---------------------------------------------------------------------------------------|
|------------------10101010---------------------------10101010--------------------------|
|-----------------------------------------------------------------------7-9-9-9-7-9-9-9-|
|------------------7-7-7-7----------------------------7-7-7-7---------------------------|
|-----------------------------------------------------------------------5-7-7-7-5-7-7-7-|
|-7-7-7-7----------------------------7-7-7-7--------------------------------------------|



|---------------------------------------------------------------------------------------|
|-12------------------------------------------------------------------------------------|
|-------------------------------------------------------------------------------11------|
|-10------------------------------------------------------------------------------------|
|-------------------------------------------------------------------------------9-------|
|---------------------------------------------------------------------------------------|
|
|
|---------------------------------------------------------------------------------------|
|------------------10101010---------------------------10101010--------------------------|
|-----------------------------------------------------------------------7-9-9-9-9-9-7-9-|
|------------------7-7-7-7----------------------------7-7-7-7---------------------------|
|-----------------------------------------------------------------------5-7-7-7-7-7-5-7-|
|-7-7-7-7----------------------------7-7-7-7--------------------------------------------|



VERSE
|----------------------------------------------------------------------------|
|----------------------------------------------------------------------------|
|----------------------------------------------------------------------------|
|-0-2---2------0-2---2------0-2---2------0-2---2------0-2~~------0-2br~------|


|------------------------------------------------------3----------3----------|
|------------------------------------------------------2----------2----------|
|------------------------------------------------------1----------1----------|
|-0-2---2------0-2---2------0-2---2------0-2---2---0----------0-0------------|
                                                   .          . .

|----------------------------------------------------------------------------|
|----------------------------------------------------------------------------|
|----------------------------------------------------------------------------|
|-0-2---2------0-2---2------0-2---2------0-2---2------0-2~~------0-2br~------|


|------------------------------------------------------3----------3----------|
|------------------------------------------------------2----------2----------|
|----------------------------------------------1-------1----------1----------|
|-0-2---2------0-2---2------0-2---2----0-0-2-2---2-0----------0-0------------|
                                       . . . . . . .          . .


PRE CHORUS 1
|---------0----------------0-----------------0-----------------0--------|
|-----------------------------------------------------------------------|
|-----------------5----------------------------------5------------------|
|-4---------------5------------------4---------------5------------------|
|-4---------------3------------------4---------------3------------------|
|-2----------------------------------2----------------------------------|


VERSE


PRE CHORUS 2
|---------0----------------0-----------------0-----------------0--------|
|-----------------------------------------------------------------------|
|-----------------5----------------------------------5------------------|
|-4---------------5------------------4---------------5------------------|
|-4---------------3------------------4---------------3------------------|
|-2----------------------------------2----------------------------------|


|---------0----------------0-----------------0--------------------------|
|-----------------------------------------------------------------------|
|-----------------5-----------------------------------------------------|
|-6---------------5------------------6---------------7------------------|
|-6---------------3------------------6---------------7------------------|
|-4----------------------------------4---------------5------------------|



CHORUS 1
|----------------------------------------------------------------------------------------------|
|---------------------8--------------------6---------------------------------------------------|
|-4-------------------8--------------------6-------------------6-------------------------------|
|-4-------------------6--------------------4-------------------6-------------------------------|
|-2------------------------------------------------------------4---------------2-5---2-4---0-0-|


MAIN


(1:43)
|-------------------------------------------------------------------------|
|------------------------------------------------------------------------|
|-7-9---9------7-9---9------7-9---9------7-9---9------7-9~~--------------|
|------------------------------------------------------------------------|


VERSE

PRE CHORUS 2


CHORUS 2
|--------------------------------------------------------------------------------|
|---------------------8--------------------6-------------------------------------|
|-4-------------------8--------------------6-------------------6-----------------|
|-4-------------------6--------------------4-------------------6-----------------|
|-2------------------------------------------------------------4-----------------|


|--------------------------------------------------------------------------------|
|---------------------8--------------------6-------------------------------------|
|-4-------------------8--------------------6-------------------6--------7--------|
|-4-------------------6--------------------4-------------------6--------7--------|
|-2------------------------------------------------------------4--------5--------|



MIDDLE
|-4-4-4-4--------6-6-6-6--------9-9-9-9-------8-8-8-8-----------------------|
|-----------------------------------------------------------7-7-7-7-9-9-9-9-|
|-2-2-2-2--------4-4-4-4--------7-7-7-7-------6-6-6-6-----------------------|
|-----------------------------------------------------------5-5-5-5-7-7-7-7-|
|
|
|-6-6-6-6-----------------------4-4-4-4-------6-6-6-6---------------4-4-4-4-|
|-6-6-6-6--------4-4-4-4--------4-4-4-4-------6-6-6-6-------4-4-4-4-4-4-4-4-|
|-4-4-4-4--------4-4-4-4--------2-2-2-2-------4-4-4-4-------4-4-4-4-2-2-2-2-|
|----------------2-2-2-2------------------------------------2-2-2-2---------|


|-6-6-6-6--------9-9-9-9--------8-8-8-8-----------------------------6-6-6-6-|
|---------------------------------------------7-7-7-7-------9-9-9-9---------|
|-4-4-4-4--------7-7-7-7--------6-6-6-6-----------------------------4-4-4-4-|
|---------------------------------------------5-5-5-5-------7-7-7-7---------|
|
|
|-6-6-6-6-----------------------4-4-4-4-------6-6-6-6---------------4-4-4-4-|
|-6-6-6-6--------4-4-4-4--------4-4-4-4-------6-6-6-6-------4-4-4-4-4-4-4-4-|
|-4-4-4-4--------4-4-4-4--------2-2-2-2-------4-4-4-4-------4-4-4-4-2-2-2-2-|
|----------------2-2-2-2------------------------------------2-2-2-2---------|


|-9-9-9-9--------8-8-8-8------------------------------------6-6-6-6-9-9-9-9-|
|-------------------------------7-7-7-7-------9-9-9-9-----------------------|
|-7-7-7-7--------6-6-6-6------------------------------------4-4-4-4-7-7-7-7-|
|-------------------------------5-5-5-5-------7-7-7-7-----------------------|
|
|
|-6-6-6-6-----------------------4-4-4-4-------6-6-6-6---------------4-4-4-4-|
|-6-6-6-6--------4-4-4-4--------4-4-4-4-------6-6-6-6-------4-4-4-4-4-4-4-4-|
|-4-4-4-4--------4-4-4-4--------2-2-2-2-------4-4-4-4-------4-4-4-4-2-2-2-2-|
|----------------2-2-2-2------------------------------------2-2-2-2---------|


|-8-8-8-8-------------------------------------6-6-6-6-------9-9-9-9---------|
|----------------7-7-7-7--------9-9-9-9-----------------------------7-7-7-7-|
|-6-6-6-6-------------------------------------4-4-4-4-------7-7-7-7---------|
|----------------5-5-5-5--------7-7-7-7-----------------------------5-5-5-5-|
|
|
|-6-6-6-6-----------------------4-4-4-4-------6-6-6-6---------------4-4-4-4-|
|-6-6-6-6--------4-4-4-4--------4-4-4-4-------6-6-6-6-------4-4-4-4-4-4-4-4-|
|-4-4-4-4--------4-4-4-4--------2-2-2-2-------4-4-4-4-------4-4-4-4-2-2-2-2-|
|----------------2-2-2-2------------------------------------2-2-2-2---------|



MIDDLE VERSE
(3:03 - Cut to the point...)      *Strum throughout*
|-4--------------6--------------9-------------8-----------------------------|
|-----------------------------------------------------------7-------9-------|
|-2--------------4--------------7-------------6-----------------------------|
|-----------------------------------------------------------5-------7-------|
|
|
|-6-----------------------------4-------------6---------------------4-------|
|-6--------------4--------------4-------------6-------------4-------4-------|
|-4--------------4--------------2-------------4-------------4-------2-------|
|----------------2------------------------------------------2---------------|


|-6--------------9--------------8-----------------------------------6-------|
|---------------------------------------------7-------------9---------------|
|-4--------------7--------------6-----------------------------------4-------|
|---------------------------------------------5-------------7---------------|
|
|
|-6-----------------------------4-------------6-----------------------------|
|-6--------------4--------------4-------------6-------------7-------4-------|
|-4--------------4--------------2-------------4-------------7-------4-------|
|----------------2------------------------------------------5-------2-------|


|-9--------------8------------------------------------------6-------9-------|
|-------------------------------7-------------9-----------------------------|
|-7--------------6------------------------------------------4-------7-------|
|-------------------------------5-------------7-----------------------------|
|
|
|-6-----------------------------4-------------6---------------------4-------|
|-6--------------4--------------4-------------6-------------4-------4-------|
|-4--------------4--------------2-------------4-------------4-------2-------|
|----------------2------------------------------------------2---------------|


|-8-------------------------------------------6-------------9-------------------------------|
|----------------7--------------9-----------------------------------------------------------|
|-6-------------------------------------------4-------------7-------------------------------|
|----------------5--------------7-----------------------------------------------------------|
|
|
|-6-----------------------------4-------------6---------------------------------------------|
|-6--------------4--------------4-------------6-------------7-------------------------------|
|-4--------------4--------------2-------------4-------------7-------------------------------|
|----------------2------------------------------------------5-----------------5-4-2-5---4---|


CHORUS 2

MAIN


OUTRO
|-----------------------------------------------------------------|
|-----------------------------------------------------------------|
|-2--------------2-------------------------2-------------------2-/|
|---------------------------------------------------------4-------|
|------2-----------------------2--------------2-------------------|
|---------2---------2-------------2--------------2----------------|


|-----------------------------------------------------------------|
|-----------------------------------------------------------------|
|-/4--------------4-------------------------4--------------1------|
|-----------------------------------------------------------------|
|-------2-----------------------2--------------2------------------|
|----------2---------2-------------2--------------2---------------|
comments
We did not receive enough feedback on this tab! Please rate:
print report bad tab
1 2 3 4 5
I want to post or [tab]
guest
You may want to rate the tab now too:
select rating
Please do not post tabs as comments. Select "correction" instead!