Oops, an error
Loading. Please wait.

Martyr Tab

ver1
ver1

Whole song

Interactive

More versions @911Tabs.com
277 views 1 this week
no commentswrite comment
1 2 3 4 5
please rate
Autoscroll
+/-
esc
set tempo
stop
Contributor
Difficulty
Tuning
novice
B E A D F# B
WARNING: You are trying to view
                                    content from Ultimate-Guitar.com
                                    in an unauthorized application,
                                    which is prohibited.

                                    Please use an official Ultimate
                                    Guitar Tabs application for iPhone,
                                    iPad or Android to access legitimate
                                    chords, guitar, bass, and drum tabs
                                    from Ultimate-Guitar.com database.

                                    Type "ultimate guitar tabs" in Apple
                                    App Store's or Android Market's
                                    search to find the application.
                                   Soilwork                                     


gitara 1
      Q    Q       Q.     Q.     Q       E  Q.     Q    Q     
B ||------------|---------------------|----------------------|
F#||------------|--5------5------5----|--L--5----------------|
D ||-------5----|---------------------|-----------------5----|
A ||--7---------|---------------------|------------7---------|
E ||------------|---------------------|----------------------|
B ||------------|---------------------|----------------------|


  Q.     Q.     Q       E  Q.     E  Q.        Q    Q       Q.     Q.     Q     
--5------------------|----------------------|------------|---------------------|
---------6------6----|--L--6------6--5------|------------|--5------5------5----|
---------------------|----------------------|-------5----|---------------------|
---------------------|----------------------|--7---------|---------------------|
---------------------|----------------------|------------|---------------------|
---------------------|----------------------|------------|---------------------|


  E  Q.     Q    Q       Q.     Q.     Q       E  Q.     E  Q.      
----------------------|---------------------|----------------------|
--L--5----------------|---------------------|----------------------|
-----------------5----|--4------------------|----------------------|
------------7---------|---------5------5----|--L--5------5---------|
----------------------|---------------------|---------------7------|
----------------------|---------------------|----------------------|


  Q    Q       Q.     Q.     Q       E  Q.     Q    Q       Q.     Q.     Q     
------------|---------------------|----------------------|--5------------------|
------------|--5------5------5----|--L--5----------------|---------6------6----|
-------5----|---------------------|-----------------5----|---------------------|
--7---------|---------------------|------------7---------|---------------------|
------------|---------------------|----------------------|---------------------|
------------|---------------------|----------------------|---------------------|


  E  Q.     E  Q.        Q    Q       Q.     Q.     Q     
---------------7------|------------|---------------------|
--L--6------6---------|------------|--5------5------5----|
----------------------|-------5----|---------------------|
----------------------|--7---------|---------------------|
----------------------|------------|---------------------|
----------------------|------------|---------------------|


  E  Q.     Q    Q       Q.     Q.     Q       E  Q.     E  Q.      
----------------------|---------------------|----------------------|
--L--5----------------|---------------------|----------------------|
-----------------5----|--4------------------|----------------------|
------------7---------|---------5------5----|--L--5------5---------|
----------------------|---------------------|---------------7------|
----------------------|---------------------|----------------------|


  Q    Q       E  E  E  E  E  E  E  E     E  E  E  E  E  E  E  S S  
------------|--------------------------|---------------------------|
------------|--------------------------|---------------------------|
-------5----|--2--2--2--2--2--2--2--2--|-----2--2--2--2--2--2--9-9-|
--7---------|--2--2--2--2--2--2--2--2--|-----2--2--2--2--2--2--9-9-|
------------|--0--0--0--0--0--0--0--0--|-----0--0--0--0--0--0--7-7-|
------------|--------------------------|---------------------------|


  E  E  E  E  E  E  E  E     E  S S E  E  E  E  E  E   
--------------------------|---------------------------|
--------------------------|---------------------------|
--9--9--9--9--9--9--9--9--|-----5-5-5--5--5-----------|
--9--9--9--9--9--9--9--9--|-----5-5-5--5--5--5--5--5--|
--7--7--7--7--7--7--7--7--|-----3-3-3--3--3--5--5--5--|
--------------------------|------------------3--3--3--|


  E  E  E  E  E  E  E  E     E  E  E  E  E  E  E  E   
--------------------------|--------------------------|
--------------------------|--------------------------|
--2--2--2--2--2--2--2--2--|-----2--2--2--2--2--2--2--|
--2--2--2--2--2--2--2--2--|-----2--2--2--2--2--2--2--|
--0--0--0--0--0--0--0--0--|-----0--0--0--0--0--0--0--|
--------------------------|--------------------------|


  E  S S S S S S E  E  E  S S    S S S S S S S S E  E  Q      
------------------------------|------------------------------|
------------------------------|------------------------------|
------------------------------|------------------------2~----|
-----2-2-2-2-2-2-2--2-----2-2-|--2-2-2-2-2-2-2-2-2--2--------|
-----2-2-2-2-2-2-2--2-----2-2-|--2-2-2-2-2-2-2-2-2--2--------|
-----0-0-0-0-0-0-0--0-----0-0-|--0-0-0-0-0-0-0-0-0--0--------|


  E  E  E  E  E  E  E  E     E  E  E  E  E  E  E  S S  
--------------------------|---------------------------|
--------------------------|---------------------------|
--2--2--2--2--2--2--2--2--|-----2--2--2--2--2--2--2-9-|
--2--2--2--2--2--2--2--2--|-----2--2--2--2--2--2--2-9-|
--0--0--0--0--0--0--0--0--|-----0--0--0--0--0--0--0-7-|
--------------------------|---------------------------|


  E  E  E  E  E  E  E  E     E  S S E  E  E  E  E  E   
--------------------------|---------------------------|
--------------------------|---------------------------|
--9--9--9--9--9--9--9--9--|-----5-5-5--5--5-----------|
--9--9--9--9--9--9--9--9--|-----5-5-5--5--5--5--5--5--|
--7--7--7--7--7--7--7--7--|-----3-3-3--3--3--5--5--5--|
--------------------------|------------------3--3--3--|


  E  E  E  E  E  E  E  E     E  E  E  E  E  E  E  E   
--------------------------|--------------------------|
--------------------------|--------------------------|
--2--2--2--2--2--2--2--2--|-----2--2--2--2--2--2--2--|
--2--2--2--2--2--2--2--2--|-----2--2--2--2--2--2--2--|
--0--0--0--0--0--0--0--0--|-----0--0--0--0--0--0--0--|
--------------------------|--------------------------|


  E  S S S S S S E  E  E  S S    S S S S S S S S E  E  Q      
------------------------------|------------------------------|
------------------------------|------------------------------|
------------------------------|------------------------2~----|
-----2-2-2-2-2-2-2--2-----2-2-|--2-2-2-2-2-2-2-2-2--2--------|
-----2-2-2-2-2-2-2--2-----2-2-|--2-2-2-2-2-2-2-2-2--2--------|
-----0-0-0-0-0-0-0--0-----0-0-|--0-0-0-0-0-0-0-0-0--0--------|


  W                   W                   W                 
-------------------|-------------------|-------------------|
-------------------|-------------------|-------------------|
--2----------------|--L----------------|-------------------|
--2----------------|--L----------------|--5----------------|
--0----------------|--L----------------|--5----------------|
-------------------|-------------------|--3----------------|


  Q    Q.     Q.        W                   W                 
---------------------|-------------------|-------------------|
---------------------|-------------------|-------------------|
---------------------|--2----------------|--L----------------|
--L----2------5------|--2----------------|--L----------------|
--L----2------5------|--0----------------|--L----------------|
--L----0------3------|-------------------|-------------------|


   W                   W                   W                 
---8----------------|--L----------------|-------------------|
---8----------------|--L----------------|-------------------|
--10----------------|--L----------------|--2----------------|
--10----------------|--L----------------|--2----------------|
---8----------------|--L----------------|--0----------------|
--------------------|-------------------|-------------------|


  W                   W                   Q    Q.     Q.      
-------------------|-------------------|---------------------|
-------------------|-------------------|---------------------|
--L----------------|-------------------|---------------------|
--L----------------|--5----------------|--L----2------5------|
--L----------------|--5----------------|--L----2------5------|
-------------------|--3----------------|--L----0------3------|


  W                   W                   E.  E.  E.  E.  E.  S  
-------------------|-------------------|--------------8---------|
-------------------|-------------------|----------6-------6-----|
--2----------------|--L----------------|------5---------------5-|
--2----------------|--L----------------|------------------------|
--0----------------|--L----------------|--8---------------------|
-------------------|-------------------|------------------------|


  E  E  H.              E  E  E  E  E  E  E  E     E  E  E  E  E  Q.      
--L--5--L------------|--------------------------|------------------------|
--------L------------|--3--3--3--3--3--3--3--3--|--L--5--5--5--5--8------|
--------L------------|--2--2--2--2--2--2--2--2--|--L---------------------|
---------------------|--0--0--0--0--0--0--0--0--|--L--2--2--2--2--5------|
--------L------------|--------------------------|------------------------|
---------------------|--------------------------|------------------------|


  E  E  E  E  E  E  E  E     E  E  E  E  E  E  E  E   
--------------------------|--------------------------|
-----0--------0--------0--|--------0--------1--------|
--------------------------|--------------------------|
--------2--------2--------|--2--------2--------2-----|
--0--------0--------0-----|-----0--------0--------0--|
--------------------------|--------------------------|


  E  E  E  E  E  E  E  E     E  E  E  E  E  E  E  E   
--------------------------|--------------------------|
-----0--------0--------0--|--------0--------1--------|
--------------------------|--------------------------|
--------2--------2--------|--2--------2--------2-----|
--0--------0--------0-----|-----0--------0--------0--|
--------------------------|--------------------------|


  E  E  E  E  E  E  E  E     E  E  E  E  E  Q.        E  E  E  E  E  E  E  E   
--------------------------|------------------------|--------------------------|
--3--3--3--3--3--3--3--3--|--L--5--5--5--5--8------|--------------------------|
--2--2--2--2--2--2--2--2--|--L---------------------|--2--2--2--2--2--2--2--2--|
--0--0--0--0--0--0--0--0--|--L--2--2--2--2--5------|--2--2--2--2--2--2--2--2--|
--------------------------|------------------------|--0--0--0--0--0--0--0--0--|
--------------------------|------------------------|--------------------------|


  E  E  E  E  E  E  E  S S    E  E  E  E  E  E  E  E   
---------------------------|--------------------------|
---------------------------|--------------------------|
-----2--2--2--2--2--2--2-9-|--9--9--9--9--9--9--9--9--|
-----2--2--2--2--2--2--2-9-|--9--9--9--9--9--9--9--9--|
-----0--0--0--0--0--0--0-7-|--7--7--7--7--7--7--7--7--|
---------------------------|--------------------------|


  E  S S E  E  E  E  E  E     E  E  E  E  E  E  E  E   
---------------------------|--------------------------|
---------------------------|--------------------------|
-----5-5-5--5--5-----------|--2--2--2--2--2--2--2--2--|
-----5-5-5--5--5--5--5--5--|--2--2--2--2--2--2--2--2--|
-----3-3-3--3--3--5--5--5--|--0--0--0--0--0--0--0--0--|
------------------3--3--3--|--------------------------|


  E  E  E  E  E  E  E  E     E  S S S S S S E  E  E  S S  
--------------------------|------------------------------|
--------------------------|------------------------------|
-----2--2--2--2--2--2--2--|------------------------------|
-----2--2--2--2--2--2--2--|-----2-2-2-2-2-2-2--2-----2-2-|
-----0--0--0--0--0--0--0--|-----2-2-2-2-2-2-2--2-----2-2-|
--------------------------|-----0-0-0-0-0-0-0--0-----0-0-|


  S S S S S S S S E  E  Q        E  E  E  E  E  E  E  E   
------------------------------|--------------------------|
------------------------------|--------------------------|
------------------------2~----|--2--2--2--2--2--2--2--2--|
--2-2-2-2-2-2-2-2-2--2--------|--2--2--2--2--2--2--2--2--|
--2-2-2-2-2-2-2-2-2--2--------|--0--0--0--0--0--0--0--0--|
--0-0-0-0-0-0-0-0-0--0--------|--------------------------|


  E  E  E  E  E  E  E  S S    E  E  E  E  E  E  E  E   
---------------------------|--------------------------|
---------------------------|--------------------------|
-----2--2--2--2--2--2--2-9-|--9--9--9--9--9--9--9--9--|
-----2--2--2--2--2--2--2-9-|--9--9--9--9--9--9--9--9--|
-----0--0--0--0--0--0--0-7-|--7--7--7--7--7--7--7--7--|
---------------------------|--------------------------|


  E  S S E  E  E  E  E  E     E  E  E  E  E  E  E  E   
---------------------------|--------------------------|
---------------------------|--------------------------|
-----5-5-5--5--5-----------|--2--2--2--2--2--2--2--2--|
-----5-5-5--5--5--5--5--5--|--2--2--2--2--2--2--2--2--|
-----3-3-3--3--3--5--5--5--|--0--0--0--0--0--0--0--0--|
------------------3--3--3--|--------------------------|


  E  E  E  E  E  E  E  E     E  S S S S S S E  E  E  S S  
--------------------------|------------------------------|
--------------------------|------------------------------|
-----2--2--2--2--2--2--2--|------------------------------|
-----2--2--2--2--2--2--2--|-----2-2-2-2-2-2-2--2-----2-2-|
-----0--0--0--0--0--0--0--|-----2-2-2-2-2-2-2--2-----2-2-|
--------------------------|-----0-0-0-0-0-0-0--0-----0-0-|


  S S S S S S S S E  E  Q        W                   W                 
------------------------------|-------------------|-------------------|
------------------------------|-------------------|-------------------|
------------------------2~----|--2----------------|--L----------------|
--2-2-2-2-2-2-2-2-2--2--------|--2----------------|--L----------------|
--2-2-2-2-2-2-2-2-2--2--------|--0----------------|--L----------------|
--0-0-0-0-0-0-0-0-0--0--------|-------------------|-------------------|


  W                   Q    Q.     Q.        W                 
-------------------|---------------------|-------------------|
-------------------|---------------------|-------------------|
-------------------|---------------------|--2----------------|
--5----------------|--L----2------5------|--2----------------|
--5----------------|--L----2------5------|--0----------------|
--3----------------|--L----0------3------|-------------------|


  W                    W                   W                 
-------------------|---8----------------|--L----------------|
-------------------|---8----------------|--L----------------|
--L----------------|--10----------------|--L----------------|
--L----------------|--10----------------|--L----------------|
--L----------------|---8----------------|--L----------------|
-------------------|--------------------|-------------------|


  W                   W                   W                 
-------------------|-------------------|-------------------|
-------------------|-------------------|-------------------|
--2----------------|--L----------------|-------------------|
--2----------------|--L----------------|--5----------------|
--0----------------|--L----------------|--5----------------|
-------------------|-------------------|--3----------------|


  Q    Q.     Q.        W                   W                 
---------------------|-------------------|-------------------|
---------------------|-------------------|-------------------|
---------------------|--2----------------|--L----------------|
--L----2------5------|--2----------------|--L----------------|
--L----2------5------|--0----------------|--L----------------|
--L----0------3------|-------------------|-------------------|


  E.  E.  E.  E.  E.  S    E  E  H.              Q.     Q.     Q     
--------------8---------|--L--5--L------------|---------------------|
----------6-------6-----|--------L------------|--5------5------5----|
------5---------------5-|--------L------------|---------------------|
------------------------|---------------------|---------------------|
--8---------------------|--------L------------|---------------------|
------------------------|---------------------|---------------------|


  E  Q.     Q    Q       Q.     Q.     Q       E  Q.     E  Q.      
----------------------|--5------------------|----------------------|
--L--5----------------|---------6------6----|--L--6------6--5------|
-----------------5----|---------------------|----------------------|
------------7---------|---------------------|----------------------|
----------------------|---------------------|----------------------|
----------------------|---------------------|----------------------|


  Q.     Q.     Q       E  Q.     Q    Q       Q.     Q.     Q     
---------------------|----------------------|---------------------|
--5------5------5----|--L--5----------------|---------------------|
---------------------|-----------------5----|--4------------------|
---------------------|------------7---------|---------5------5----|
---------------------|----------------------|---------------------|
---------------------|----------------------|---------------------|


  E  Q.     E  Q.        Q    Q       E  E  E  E  E  E  E  E   
----------------------|------------|--------------------------|
----------------------|------------|--------------------------|
----------------------|-------5----|--2--2--2--2--2--2--2--2--|
--L--5------5---------|--7---------|--2--2--2--2--2--2--2--2--|
---------------7------|------------|--0--0--0--0--0--0--0--0--|
----------------------|------------|--------------------------|


  E  E  E  E  E  E  E  S S    E  E  E  E  E  E  E  E   
---------------------------|--------------------------|
---------------------------|--------------------------|
-----2--2--2--2--2--2--2-9-|--9--9--9--9--9--9--9--9--|
-----2--2--2--2--2--2--2-9-|--9--9--9--9--9--9--9--9--|
-----0--0--0--0--0--0--0-7-|--7--7--7--7--7--7--7--7--|
---------------------------|--------------------------|


  E  S S E  E  E  E  E  E     E  E  E  E  E  E  E  E   
---------------------------|--------------------------|
---------------------------|--------------------------|
-----5-5-5--5--5-----------|--2--2--2--2--2--2--2--2--|
-----5-5-5--5--5--5--5--5--|--2--2--2--2--2--2--2--2--|
-----3-3-3--3--3--5--5--5--|--0--0--0--0--0--0--0--0--|
------------------3--3--3--|--------------------------|


  E  E  E  E  E  E  E  E     E  S S S S S S E  E  E  S S  
--------------------------|------------------------------|
--------------------------|------------------------------|
-----2--2--2--2--2--2--2--|------------------------------|
-----2--2--2--2--2--2--2--|-----2-2-2-2-2-2-2--2-----2-2-|
-----0--0--0--0--0--0--0--|-----2-2-2-2-2-2-2--2-----2-2-|
--------------------------|-----0-0-0-0-0-0-0--0-----0-0-|


  S S S S S S S S E  E  Q        E  E  E  E  E  E  E  E   
------------------------------|--------------------------|
------------------------------|--3--3--3--3--3--3--3--3--|
------------------------2~----|--2--2--2--2--2--2--2--2--|
--2-2-2-2-2-2-2-2-2--2--------|--0--0--0--0--0--0--0--0--|
--2-2-2-2-2-2-2-2-2--2--------|--------------------------|
--0-0-0-0-0-0-0-0-0--0--------|--------------------------|


  E  E  E  E  E  Q.        E  E  E  E  E  E  E  E     E  E  E  E  E  E  E  E   
------------------------|--------------------------|--------------------------|
-----5--5--5--5--8------|-----0--------0--------0--|--------0--------1--------|
------------------------|--------------------------|--------------------2-----|
-----2--2--2--2--5------|--------2--------2--------|--2--------2-----------2--|
------------------------|--0--------0--------0-----|-----0--------0-----------|
------------------------|--------------------------|--------------------------|


  E  E  E  E  E  E  E  E     E  E  E  E  E  E  E  E   
--------------------------|--------------------------|
-----0--------0--------0--|--------0--------1--------|
--------------------------|--------------------2-----|
--------2--------2--------|--2--------2-----------2--|
--0--------0--------0-----|-----0--------0-----------|
--------------------------|--------------------------|


  E  E  E  E  E  E  E  E     E  E  E  E  H            Q.      Q.     Q      
--------------------------|-----------------------|--12s------7------8s----|
--3--3--3--3--3--3--3--3--|-----5--5--5--5--------|------------------------|
--2--2--2--2--2--2--2--2--|-----------------------|------------------------|
--0--0--0--0--0--0--0--0--|-----2--2--2--2--------|------------------------|
--------------------------|-----------------------|------------------------|
--------------------------|-----------------------|------------------------|


  E  Q.     Q     Q        Q.      Q.     Q        E  Q.     Q     Q     
--L--5------7s----3----|--12s------7------8s----|--L--5------7s----3----|
-----------------------|------------------------|-----------------------|
-----------------------|------------------------|-----------------------|
-----------------------|------------------------|-----------------------|
-----------------------|------------------------|-----------------------|
-----------------------|------------------------|-----------------------|


   Q.      Q.     Q        E  Q.     Q     Q        Q.      Q.     Q      
--12s------7------8s----|--L--5------7s----3----|--12s------7------8s----|
------------------------|-----------------------|------------------------|
------------------------|-----------------------|------------------------|
------------------------|-----------------------|------------------------|
------------------------|-----------------------|------------------------|
------------------------|-----------------------|------------------------|


  E  Q.     Q     Q        Q.      Q.     Q        E  Q.     Q     Q     
--L--5------7s----3----|--12s------7------8s----|--L--5------7s----3----|
-----------------------|------------------------|-----------------------|
-----------------------|------------------------|-----------------------|
-----------------------|------------------------|-----------------------|
-----------------------|------------------------|-----------------------|
-----------------------|------------------------|-----------------------|


   Q.      Q.     Q        E  Q.     Q     Q        Q.      Q.     Q      
--12s------7------8s----|--L--5------7s----3----|--12s------7------8s----|
------------------------|-----------------------|------------------------|
------------------------|-----------------------|------------------------|
------------------------|-----------------------|------------------------|
------------------------|-----------------------|------------------------|
------------------------|-----------------------|------------------------|


  E  Q.     Q     Q        Q.      Q.     Q        E  Q.     Q     Q     
--L--5------7s----3----|--12s------7------8s----|--L--5------7s----3----|
-----------------------|------------------------|-----------------------|
-----------------------|------------------------|-----------------------|
-----------------------|------------------------|-----------------------|
-----------------------|------------------------|-----------------------|
-----------------------|------------------------|-----------------------|


   Q.      Q.     Q        E  Q.     Q     Q        Q.      Q.     Q      
--12s------7------8s----|--L--5------7s----3----|--12s------7------8s----|
------------------------|-----------------------|------------------------|
------------------------|-----------------------|------------------------|
------------------------|-----------------------|------------------------|
------------------------|-----------------------|------------------------|
------------------------|-----------------------|------------------------|


  E  Q.     Q     Q              
--L--5------7s----3----|-------||
-----------------------|-------||
-----------------------|-------||
-----------------------|-------||
-----------------------|-------||
-----------------------|-------||




Duration Legend
---------------
W - whole
H - half
Q - quarter
E - 8th
S - 16th
T - 32nd
X - 64th
. - note dotted
|-n-|  - n-tuplets


Tablature Legend
----------------
L - tied note
x - dead note
g - grace note
(n) - ghost note
> - accentuded note
NH - natural harmonic
AH - artificial harmonic
TH - tapped harmonic
SH - semi harmonic
PH - pitch harmonic
h - hammer on
p - pull off
b - bend
br - bendRelease
pb - preBend
pbr - preBendRelease
brb - bendReleaseBend
\n/ - tremolo bar dip
\n - tremolo bar dive
-/n - tremolo bar Release up
/n\ - tremolo bar inverted dip
/n - tremolo bar return
-\n - tremolo bar Release down
S - shift slide
s - legato slide
/ -  slide into from below or out of upwards
\ -  slide into from above or out of downwards
~ - vibrato
W - wide vibrato
tr - trill
TP - tremolo picking
T - tapping
S - slap
P - pop
< - fade in
^ - brush up
v - brush down
comments
We did not receive enough feedback on this tab! Please rate:
print report bad tab
1 2 3 4 5
I want to post or [tab]
guest
You may want to rate the tab now too:
select rating
Please do not post tabs as comments. Select "correction" instead!