Oops, an error
Loading. Please wait.

Millionflame Tab

1,291 views 1 this week
no commentswrite comment
1 2 3 4 5
worth learning
x 1
Autoscroll
+/-
esc
set tempo
stop
WARNING: You are trying to view
                                    content from Ultimate-Guitar.com
                                    in an unauthorized application,
                                    which is prohibited.

                                    Please use an official Ultimate
                                    Guitar Tabs application for iPhone,
                                    iPad or Android to access legitimate
                                    chords, guitar, bass, and drum tabs
                                    from Ultimate-Guitar.com database.

                                    Type "ultimate guitar tabs" in Apple
                                    App Store's or Android Market's
                                    search to find the application.
                    Soilwork - Millionflame
             From the Album The Chainheart Machine
              Copyright 2000 Nuclear Blast
                  Version 1.0 - 13th, Sept 2001

Transcribed by: Ben Bordiss

For Questions, Comments, Newest Version, or Corrections contact
 Ben Bordiss: at cladinshadows99@excite.com

Check Out Death Warp, With More Transcriptions On It:
 http://www.sorrowsend.com/DeathWarp/

..  - palm mute         /  - slide up to
\  - slide down to      ~  - vibrato
h  - hammer on          b  - bend
p  - pull off           Suffixes for bend
ph - pinch harmonic     f - full bend
*  - see comment        h - half bend
r - release             t - tap bend
X  - percussion mute    ~ - vibrato bend
@  - slight palm mute   () - ghost note, sustained note

Tune Gtr to B (1:B, 2:E, 3:A, 4:D, 5:F#, 6:B)

Millionflame

Riff A

|------7--------------7-------------8-12-----8-12----7-10----7-10----|
|----8------7-10----8------7-10--10-------10-------8-------8---------|
|:-9------7-------9------7-------------------------------------------|Gtr
|:-------------------------------------------------------------------| I
|--------------------------------------------------------------------|
|--------------------------------------------------------------------|
|  . . . etc                                                         |
|--------------------------------------------------------------------|
|--------------------------------------------------------------------|
|:----------------------------------5--9-----5--9----4--7----4--7----|Gtr
|:---5-9----4--7----5-9----4--7---7--------7-------5-------5---------| II
|--7------5-------7------5-------------------------------------------|
|--------------------------------------------------------------------|
   . . . etc


|------7--------------7----------------------------------------------|
|----8------7-10----8------7-10-----7-10-----7-10--------------------|
|--9------7-------9------7--------7--------7---------6--9----6--9---:|Gtr
|--------------------------------------------------7-------7--------:| I
|--------------------------------------------------------------------|
|--------------------------------------------------------------------|
| . . . etc                                                          |
|--------------------------------------------------------------------|
|--------------------------------------------------------------------|
|-------------------------------------------------------------------:|Gtr
|----5-9----4--7----5-9----4--7-----4--7-----4--7-------------------:| II
|--7------5-------7------5--------5--------5----------4--7---4--7----|
|--------------------------------------------------5-------5---------|
   . . . etc


Riff B

|------7--------------7-------------8-12-----8-12----7-10----7-10----|
|----8------7-10----8------7-10--10-------10-------8-------8---------|
|:-9------7-------9------7-------------------------------------------|Gtr
|:-------------------------------------------------------------------| I
|--------------------------------------------------------------------|
|--------------------------------------------------------------------|
|  . . . etc                                                         |
|                                                                    |
|-----12------10-----12------10----10-14----10-14----8-12----8-12----|
|---12------10-----12------10----10------10--------8-------8---------|
|:-9------7------9-------7-------------------------------------------|Gtr
|:-------------------------------------------------------------------| II
|--------------------------------------------------------------------|
|--------------------------------------------------------------------|
   . . . etc
                                       ending  1.               2.
|------7-------------7------------------------|----------------|-----|
|----8-----7-10----8-----7-10----7-10----7-10-|----------------|-----|
|--9-----7-------9-----7-------7-------7------|----6-9----6-9-:|-----|Gtr
|---------------------------------------------|--7------7-----:|-7~~-| I
|---------------------------------------------|----------------|-----|
|---------------------------------------------|----------------|-----|
|  . . . etc                                  |                |     |
|-----12-----10-----12-----10------10------10-|------8------8--|-----|
|---12-----10-----12-----10------10------10---|----8------8----|-----|
|--9-----7------9------7-------7-------7------|--5------5-----:|-5~~-|Gtr
|---------------------------------------------|---------------:|-----| II
|---------------------------------------------|----------------|-----|
|---------------------------------------------|----------------|-----|
   . . . etc


Riff C (after intro - both gtrs)
|--------------------------------------------------------------------|
|--------------------------------------------------------------------|
|:--------------------------------------7-5-7------------------------|Gtr
|:---------9-7-9-----------9---7-9------5-5-5------------------------| I
|----------7-7-7-----------7---7-7------5----------------------------|
|--0-0-0-0--------0-0-0-0----------0-0-------------------------------|
   . . . .        . . . .          . .

                (+) during intro, stop here 2nd time through
|--------------------------------------------------------------------|
|--------------------------------------------------------------------|
|---------------(+)--------------------------------------------------|Gtr
|---------9-7-9---------9-7-9----------------------------------------| I
|---------7-7-7---------7-7-7-----5---2~-----------------------------|
|-000000----------00-00-------00--3-0--------------------------------|
  ......          .. ..       ..

Fill A
|--------------------------------------------------------------------|
|--------------------------------------------------------------------|
|---------------------------------------------------------------|Gtr
|--------------------------------------------------------------------| II
|-pick-slide\\\----2--------------5---2~-----------------------------|
|-----down---\\\---0--------------3-0--------------------------------|


Riff D

|--------------------------------------------------------------------|
|--------------------------------------------------------------------|
|:-------------------------------------------------------------------|Gtr
|:-------------------------------------55555555----------------------| I
|----------7-5-7-----------7---5-7-----------------------------------|
|--0-0-0-0--------0-0-0-0----------0-0-------------------------------|
|  . . . .        . . . .          . .                               |
|--------------------------------------------------------------------|
|--------------------------------------------------------------------|
|:-------------------------------------44444444----------------------|Gtr
|:----------5-4-5----------5---4-5-----------------------------------| II
|--------------------------------------------------------------------|
|--0-0-0-0--------0-0-0-0----------0-0-------------------------------|
   . . . .        . . . .          . .

                  ending  1.                      2.
|------------------------|-----------------------|-------------------|
|------------------------|-----------------------|-------------------|
|:-----------------------|-----------------(A.H):|-------------------|Gtr
|:-----------------------|----------------------:|-------------------| I
|----------7-5-7---------|-7--5-7------5---2~----|-------------------|
|--0-0-0-0-------0-0-0-0-|--------0-0--3-0-------|-------------------|
|  . . . .       . . . . |        . .            |                   |
|------------------------|-----------------------|-------------------|
|------------------------|-----------------------|-------------------|
|:-----------------------|----------------------:|-7-----------------|Gtr
|:----------5-4-5--------|-5---4-5--------------:|-7--7--------------| II
|------------------------|-------------5---2~----|-5--7-------7-5-4--|
|--0-0-0-0-------0-0-0-0-|--------0-0--3-0-------|----5-------5-3-2--|
   . . . .       . . . .          . .                         . . .

Riff E

|--------------------------------------------------------------------|
|--------------------------------------------------------------------|
|:-99-99-12-12-11-11-9999-99-12-12-11-11----------------------------:|Gtr
|:---9--9-----9-----9----9--9-----9-----9---------------------------:| I
|--------------------------------------------------------------------|
|--------------------------------------------------------------------|
|                                                                    |
|--------------------------------------------------------------------|
|--------------------------------------------------------------------|
|:------------------------------------------------------------------:|Gtr
|:---------------------------------------5-5----5-5----7-7----7-7---:| II
|--2-------------------------------------3-3----3-3----5-5----5-5----|
|--0-----------------------------------------000----000----000---000-|
                                             ...    ...    ...   ...

Riff F

|--------------------------------------------------------------------|
|--------------------------------------------------------------------|
|------5---4~~--------------------5---4~~----------------------------|Gtr
|--2-2---2--------------------3-3---3--------------------------------| I
|--------------------------------------------------------------------|
|--------------------------------------------------------------------|
|                                                                    |
|--------------------------------------------------------------------|
|--------------------------------------------------------------------|
|-------------------5---4~~-------------------5---4~~----------------|Gtr
|---------------2-2---2-------------------3-3---3--------------------| II
|--------------------------------------------------------------------|
|--------------------------------------------------------------------|
|                                                                    |
|--------------------------------------------------------------------|
|--------------------------------------------------------------------|
|--------------------------------------------------------------------|Gtr
|--------------------------------------------------------------------|III
|--2-----------------------------------------------------------------|
|--0-----------------------------------------------------------------|


|--------------------------------------------------------------------|
|--------------------------------------------------------------------|
|------5---4~~--------------------5---4~~----------------------------|Gtr
|--4-4---4--------------------3-3---3--------------------------------| I
|--------------------------------------------------------------------|
|--------------------------------------------------------------------|
|                                                                    |
|--------------------------------------------------------------------|
|-------------------5---4~~-------------------5---4~~----------------|
|---------------4-4---4-------------------3-3---3--------------------|Gtr
|--------------------------------------------------------------------| II
|--------------------------------------------------------------------|
|--------------------------------------------------------------------|

Riff G

|--------------------------------------------------------------------|
|----5-3~~---5-3~~--5-3~~---5-3~~--5-3~~---5-3~~---------------------|
|--------------------------------------------------------------------|Gtr
|-2-2-2---2-2-2--3-3-3---3-3-3--4-4-4---4-4-4------------------------| I
|--------------------------------------------------------------------|
|--------------------------------------------------------------------|
|                                                                    |
|--------------------------------------------------------------------|
|--------------------------------------------------------------------|
|----5-4~----5-4~---5-4~----5-4~---5-4~----5-4~----------------------|Gtr
|-2-2-2---2-2-2--3-3-3---3-3-3--4-4-4---4-4-4------------------------| II
|--------------------------------------------------------------------|
|--------------------------------------------------------------------|

Fill B

|-----------------------------------------|
|---------10-10-10-8-8-8------------------|
|--------------------------------999-777--|Gtr
|-777-777----------------555-555----------| I
|-----------------------------------------|
|-----------------------------------------|
|                                         |
|-----------------------------------------|
|-----------------------------------------|
|---------10-10-10-9-9-9---------999-777--|Gtr
|-777-777----------------555-555----------| II
|-----------------------------------------|
|-----------------------------------------|

Solo 1 Backing

|----------------------|
|----------------------|
|:--------------------:|Gtr
|:-2---3---4----3-----:| II
|--2---3---4----3------|
|--0---1---2----1------|

Solo 1

|--------------------------------------------------------------------|
|-17~~~-15-18-15-----------------------------------------------------|
|----------------16--------------------------------------------------|Gtr
|-------------------18-15-14~----12-14-15-14~------------------------| I
|--------------------------------------------------------------------|
|--------------------------------------------------------------------|

|-----17-------19------20--------------------------------------------|
|--------------------------------------------------------------------|
|-/14----14-16---16-17----17\14~-------------------------------------|Gtr
|--------------------------------------------------------------------| I
|--------------------------------------------------------------------|
|--------------------------------------------------------------------|

|-19hbr-17-----------------------------------------------------------|
|----------20-18-17--------------------------------------------------|
|-------------------19-17-16-----------------------------------------|Gtr
|----------------------------19-17-15~-------------------------------| I
|--------------------------------------------------------------------|
|--------------------------------------------------------------------|
|                                                                    |
|-17-15-13-----------------------------------------------------------|
|----------17-15-13--------------------------------------------------|
|-------------------16-14-12-----------------------------------------|Gtr
|----------------------------15-14-15--------------------------------|III
|--------------------------------------------------------------------|
|--------------------------------------------------------------------|

                                             * 4 step bend
|--20-17-19-20-19--|--20-17-19-20-19-17--|-20*br~-20*b~~-------------|
|------------------|---------------------|---------------------------|
|:----------------:|:-------------------:|---------------------------|Gtr
|:------(x4)------:|:-(or-just-go-nuts--:|---------------------------| I
|------------------|--on-these-3-notes!)-|---------------------------|
|------------------|---------------------|---------------------------|

|-\16-17-------------------------------------------------------------|
|--------17-18-15-17-13h1513-----------------------------------------|
|----------------------------16--------------------------------------|Gtr
|-------------------------------15~----------------------------------| I
|--------------------------------------------------------------------|
|--------------------------------------------------------------------|

|-----13-------17-------20-------22----22fb~-------------------------|
|--------------------------------------------------------------------|
|-/10----10/14----14/17----17/19----19-------------------------------|Gtr
|--------------------------------------------------------------------| II
|--------------------------------------------------------------------|
|--------------------------------------------------------------------|

Fill C

|-------|
|-------|
|-------|Gtr
|-2-----| II
|-2-----|
|-0-----|

Riff H

|--------------------------------------------------------------------|
|--------------------------------------------------------------------|
|--------------------------------------------------------------------|Gtr
|--------------------------------------------------------------------| I
|-----7-5~---7-4~---7-5~-------------7-5~---7-4~---7-5~--------------|
|-0-0------0------0------0-3-5-3-0-0------0------0------0-3-5-3------|
|   .                    . . . .                        . . . .      |
|--------------------------------------------------------------------|
|--------------------------------------------------------------------|
|--------------------------------------------------------------------|Gtr
|-2---------------------------2--------------------------------------| II
|-2---------------------------2--------------------------------------|
|-0-------------------0-3-5-3-0--------------------------------------|
  .                   . . . .

Riff I

|--------------------------------------------------------------------|
|--------------------------------------------------------------------|
|--------------------------------------------------------------------|Gtr
|--------------------------------------------------------------------| I
|-----7-5~---7-4~---7-5~-------------7-5~---7-4~---7-5~--------------|
|-0-0------0------0------0-3-5-3-0-0------0------0------0-3-5-3------|
|   .                    . . . .                        . . . .      |
|--------------------------------------------------------------------|
|--------------------------------------------------------------------|
|--------------------------------------------------------------------|Gtr
|-----5-4~---5-5~---5-4~-------------5-4~---5-5~---5-4~--------------| II
|--------------------------------------------------------------------|
|-0-0------0------0------0-3-5-3-0-0------0------0------0-3-5-3------|
    .                    . . . .                        . . . .

Solo 2

|--------------------------------------------------------------------|
|-----------------------------------------------------------8-10-8---|
|-------------------------------------------------------7-9----------|Gtr
|--------5-7-7hbr\5h7~--------------------------5h7h8/9--------------| I
|-19\7~~----------------------------------5h6h7----------------------|
|----------------------0-h3h4h5-0-5h6h7-7----------------------------|

 *hold bend til r
|---------------|----------------------------------|-----------------|
|-10fb*-t13-r---|--15fb-15-15-12-14hb-14----12-15--|-15--------------|
|---------------|:-----------------------12-------:|-14fb~-14-12-----|Gtr
|---------------|:--------------------------------:|-------------14--| I
|---------------|----------------------------------|-----------------|
|---------------|----------------------------------|-----------------|

|--------------------------------------------------------------------|
|--------------------------------------------------------------------|
|--------------------------------------------------------------------|Gtr
|-13-12--------------------------------------------14~---------------| I
|-------14-13-12-14-13-12-10------------10--12-----------------------|
|----------------------------12-10-12----------12--------------------|

Riff J

|--------------------------------------------------------------------|
|--------------------------------------------------------------------|
|:-99-99-12-12-11-11-9999-99-12-12-11-11----------------------------:|Gtr
|:---9--9-----9-----9----9--9-----9-----9---------------------------:| I
|-------------------------------------------------------------5-2----|
|-------------------------------------------------------------3-0----|
|                                                               .    |
|--------------------------------------------------------------------|
|--------------------------------------------------------------------|
|:------------------------------------------------------------------:|Gtr
|:---------------------------------------5-5----5-5-----------------:| II
|--2-------------------------------------3-3----3-3-----------5-2----|
|--0-----------------------------------------000--------------3-0----|
                                                                .

Arrangement

Riff A
Riff B (0.12)
Riff C x 3 (0.24) With Fill A first time
Riff D (0.49)
Riff E x 2 (1.04)
Riff C x 4 (1.15)
Riff D (1.40)
Riff E x 2 (1.55)
Riff F (2.06)
Riff G (2.18)
Fill B (2.27)
Solo 1 (2.30)
Fill C (2.53)
Riff H (3.17)
Riff I x 5 (3.24)
Solo 2 over Riff H (3.34)
Riff E x 3 (3.54)
Riff J (4.12)

Check Out Death Warp, With More Transcriptions On It:
 http://www.sorrowsend.com/DeathWarp/
comments
We did not receive enough feedback on this tab! Please rate:
print report bad tab
1 2 3 4 5
I want to post or [tab]
guest
You may want to rate the tab now too:
select rating
Please do not post tabs as comments. Select "correction" instead!